Song name
# A B C D E F G H I J K L M N O P Q R S T U V W X Y Z

James Blake - The Wilhelm Scream tab

Song: The Wilhelm Scream
Artist: James Blake
Tabbed by: L. A. Rai

Palm muted:

E-------------------------------------------|
B-------------------------------------------|
G----------7------------7-------------------|
D-------7-9---------7-9---------------------|
A-7-9-10-----10-9-7-------10-9--------------|
E-------------------------------------------|

Fast strumming:

E-3--2-----1--------3--6--7-----------------|
B-3--3-----0--------3--6--7-----------------|
G-4--2--0--0--0--0--0--X--X-----------------|
D-5--0--2--0--2--0--0--5--6-----------------|
A-5-----2--2--2--2--2--6--7-----------------|
E-------0--3--0--0--3-----------------------|


Comments & feedack welcome!

http://soundcloud.com/laura-rai
Tap to rate this tab
# A B C D E F G H I J K L M N O P Q R S T U V W X Y Z