Song name
# A B C D E F G H I J K L M N O P Q R S T U V W X Y Z

James Blake - Retrograde tab

-----------------------------------------------------------------------------
                             RETROGRADE - James Blake
-----------------------------------------------------------------------------

Tabbed by: Natalie Sluchinski
E-mail: Nat3437@gmail.com

Tuning: Standard 
No Capo

**Constructive criticism appreciated!

 / - slide up


e----------------------------------------------------------------|
B----------------------------------------------------------------|
G-------------------3-0------------------------------------------|
D----------0-3/5---------3-0-3-0---------------------------------|
A----1/3-------------------------------3-------------------------|
E--3-------------------------------------------------------------|


e----------------------------------------------------------------|
B----------------------------------------------------------------|
G----------------------------------------------------------------|
D--0--------0-----------0--------0------3--0---------------------|
A-----3-1------3-----------3-1------3----------------------------|
E----------------------------------------------------------------|


e----------------------------------------------------------------|
B----------------------------------------------------------------|
G-----------------------0----------------------------------------|
D--0--------0-------3--------------------------------------------|
A-----3-1------3-------------------------------------------------|
E----------------------------------------------------------------|


               G   
You're on your own,
     Cm 
in a world you've grown
A#
Few more years to go,
      D
Don't let the hurdle fall
A#        Cm         D
So be the girl you loved,
A#    Cm         D
Be the girl you loved



     G        Cm      
I'll wait, so show me why you're strong
A#
Ignore everybody else,
      D
We're alone now
     G        Cm      
I'll wait, so show me why you're strong
A#
Ignore everybody else,
      D
We're alone now


             G
Suddenly I'm hit
        Cm
Is this darkness or the dawn
A#
And your friends are gone
D
When you friends won't come
   Cm                A#
So show me where you fit
   Cm                D
So show me where you fit



     G        Cm
I'll wait, so show me why you're strong
A#
Ignore everybody else,
A# 
We're alone now
We're alone now

I'll wait (We're alone now...We're alone now...We're alone now)

I'll wait (We're alone now...We're alone now)

I'll wait (We're alone now...We're alone now...We're alone now...We're alone now)


             G
Suddenly I'm hit
        Cm
Is this darkness or the dawn
A#
And your friends are gone
D
When you friends won't come
   Cm                A#
So show me where you fit
   Cm                D
So show me where you fit
Tap to rate this tab
# A B C D E F G H I J K L M N O P Q R S T U V W X Y Z