Song name
# A B C D E F G H I J K L M N O P Q R S T U V W X Y Z

James Blunt - Wisemen tab

-------------------------------------------------------------------------------
			         WISEMEN - James Blunt
-------------------------------------------------------------------------------
Tabbed by: Barry Miles
Email: shoebox_of_lies@hotmail.com

Tuning: Capo On 3rd Fret

Pretty sure this is perfect, e-mail or leave comment for corrections.

----------INTRO----------

  Guitar 1
e|-3-------3--2---------2--------2--0------------|
B|----5----------3---------3-----------2---------|
G|-------4----------4---------2-----------2------|
D|-----------------------------------------------|
A|-----------------------------------------------|
E|-----------------------------------------------|

  Guitar 1
e|-3-------3--2---------2--------2--0------------|
B|----5----------3---------3-----------2---------|
G|-------4----------4---------2-----------2------|
D|-----------------------------------------------|
A|-----------------------------------------------|
E|-----------------------------------------------|
 |                                               |
 |Guitar 2                                       | x3
 | Em         Bm          Dsus2      Asus2       |
e|------3---------2----------0-----------0-------|
B|-----0---------3----------3-----------0--2h3p2-|
G|----0---------4----------2-----------2---------|
D|---2---------4----------0-----------2----------|
A|--2---------2----------------------0-----------|
E|-0---------------------------------------------|

----------VERSE----------

  Guitar 1
e|-----------------------------------------0--2--|
B|-----------------------------------------------|
G|-----------------------------------------------|
D|-----------------------------------------------|
A|-----------------------------------------------|
E|-----------------------------------------------|
 |                                               |
 |Guitar 2                                       |   
 | Em         Bm          Dsus2      Asus2       |
e|------3---------2----------0-----------0-------|
B|-----0---------3----------3-----------0--2h3p2-|
G|----0---------4----------2-----------2---------|
D|-------------4----------0-----------2----------|
A|------------2----------------------0-----------|
E|-----------------------------------------------|

"She said to me, go steady on me, won't you tell me what the wisemen said when they"

  Guitar 1
e|--3--------2-----------------------------------|
B|-----------------------3----------2------------|
G|-----------------------------------------------|
D|-----------------------------------------------|
A|-----------------------------------------------|
E|-----------------------------------------------|
 |                                               |
 |Guitar 2                                       |   
 | Em         Bm          Dsus2      Asus2       |
e|------3---------2----------0-----------0-------|
B|-----0---------3----------3-----------0--2h3p2-|
G|----0---------4----------2-----------2---------|
D|---2---------4----------0-----------2----------|
A|--2---------2----------------------0-----------|
E|-0---------------------------------------------|

"Came down from heaven, smoked nine 'til seven, all the shit that they could find, but they"

  Guitar 2                                           
   Em         Bm          Dsus2      Asus2        
e|------3---------2----------0-----------0-------|
B|-----0---------3----------3-----------0--2h3p2-|
G|----0---------4----------2-----------2---------|
D|---2---------4----------0-----------2----------|
A|--2---------2----------------------0-----------|
E|-0---------------------------------------------|

"Couldn't escape from you, couldn't be free of you, and now they know there's no way out and they're"

--------PRECHORUS--------

  Guitar 2
  G                       Asus2
e|-3---3--3-3--3--3--3-3--0---0--0-0--0--0--0-0--|
B|-3---3--3-3--3--3--3-3--0---0--0-0--0--0--0-0--|
G|-0---0--0-0--0--0--0-0--2---2--2-2--2--2--2-2--|
D|-0---0--0-0--0--0--0-0--2---2--2-2--2--2--2-2--|
A|-2---2--2-2--2--2--2-2--0---0--0-0--0--0--0-0--|
E|-3---3--3-3--3--3--3-3-------------------------|

"Really sorry now for what they've done, they were three wise men just tryin' to have some fun"

---------CHORUS----------

  Guitar 1
e|-----------------------------------------------|
B|-----------------------------------------------|
G|-----------------------------------------------|
D|--------------------------------------2h4--2-1-|
A|-----------------------------------------------|
E|-----------------------------------------------|
 |                                               |
 |Guitar 2                                       |   
 | Am         C           G          D           |
e|-0---0--0---0---0--0--0-3---3--3---2--2--2---2-|
B|-1---1--1---1---1--1--1-3---3--3---3--3--3---3-|
G|-2---2--2---0---0--0--0-0---0--0---2--2--2---2-|
D|-2---2--2---2---2--2--2-0---0--0---0--0--0---0-|
A|-0---0--0---3---3--3--3-2---2--2---------------|
E|------------------------3---3--3---------------|

"Look who's alone now, it's not me, it's not me"

  Guitar 1
e|------------------3-----3-----3---3-2h3-2-0----|
B|--------------------------------------------3-0|
G|-----------------------------------------------|
D|-----------------------------------------------|
A|-----------------------------------------------|
E|-----------------------------------------------|
 |                                               |
 |Guitar 2                                       |   
 | Am         C           G          D           |
e|-0---0--0---0---0--0--0-3---3--3---2--2--2---2-|
B|-1---1--1---1---1--1--1-3---3--3---3--3--3---3-|
G|-2---2--2---0---0--0--0-0---0--0---2--2--2---2-|
D|-2---2--2---2---2--2--2-0---0--0---0--0--0---0-|
A|-0---0--0---3---3--3--3-2---2--2---------------|
E|------------------------3---3--3---------------|

"Those three wisemen, they've got a semi by the sea"

  Guitar 2                                           
   Am         F           G          D            
e|-0---0--0---1---1--1--1-3---3--3---2--2--2---2-|
B|-1---1--1---1---1--1--1-3---3--3---3--3--3---3-|
G|-2---2--2---2---2--2--2-0---0--0---2--2--2---2-|
D|-2---2--2---3---3--3--3-0---0--0---0--0--0---0-|
A|-0---0--0---3---3--3--3-2---2--2---------------|
E|------------1---1--1--1-3---3--3---------------|

"Gotta ask yourself the question, where are you now"

  Guitar 2                                           
   Am         F           G          D            
e|-0---0--0---1---1--1--1-3---3--3---2--2--2---2-|
B|-1---1--1---1---1--1--1-3---3--3---3--3--3---3-|
G|-2---2--2---2---2--2--2-0---0--0---2--2--2---2-|
D|-2---2--2---3---3--3--3-0---0--0---0--0--0---0-|
A|-0---0--0---3---3--3--3-2---2--2---------------|
E|------------1---1--1--1-3---3--3---------------|

"Gotta ask your self the question, where are you now"

---------VERSE 2---------

Lyrics:
"Really sorry now, they weren't to know, they got caught up in your fashion show with you"
"Benictor little bastards and your fancy dress who just judge each other, and try to impress, but they"
"Couldn't escape from you, couldn't be free of you, and now they know there's no way out and they're"

--------PRECHORUS--------

---------CHORUS----------

---------BRIDGE----------

  Guitar 1
e|---------------------------------------------------------|
B|---------------------------------------------------------|
G|-0--------------0---------------------------0---2---0----|
D|---0--2--2---------0--2---------0--2--2------------------|
A|---------------------------------------------------------|
E|---------------------------------------------------------|
 |                                                         |
 |Guitar 2                                                 |
 |Am    C        D        Em   Am    C        D        Em  |
e|---------------------------------------------------------|
B|-1-/--1--1--T--3--3--/--5--5--1-/--1--1--T--3--3--/--5-5-|
G|-2-/--0--0--T--2--2--/--4--4--2-/--0--0--T--2--2--/--4-4-|
D|-2-/--2--2--T--0--0--/--------2-/--2--2--T--0--0--/------|
A|-0-/--3--3--T-----------------0-/--3--3--T---------------|
E|---------------------------------------------------------|

  Guitar 1
e|---------------------------------------------------------|
B|-------------------------------------------------1---3--1|
G|-0--------------0------------------------0---2-----------|
D|---0--2--2---------0--2-------0---2---4------------------|
A|---------------------------------------------------------|
E|---------------------------------------------------------|
 |                                                         |
 |Guitar 2                                                 |
 |Am    C        D        Em    D                          |
e|---------------------------------------------------------|
B|-1-/--1--1--T--3--3--/--5--5--3-3--3--3--3--3--3--3--3-3-|
G|-2-/--0--0--T--2--2--/--4--4--2-2--2--2--2--2--2--2--2-2-|
D|-2-/--2--2--T--0--0--/--------0-0--0--0--0--0--0--0--0-0-|
A|-0-/--3--3--T--------------------------------------------|
E|---------------------------------------------------------|

-------GUITAR SOLO-------

  Guitar 1
e|--------------------------------3--5-3b-------------3----|
B|--------------------1----1---3b---------3---3-1---3-1----|
G|-3b---2--------0h2----2-------------------------2--------|
D|---------------------------------------------------------|
A|---------------------------------------------------------|
E|---------------------------------------------------------|
 |                                                         |
 |Guitar 2                                                 |
 |Am             C             G              D            |
e|-0--0--0--0--0-0--0--0--0--0-3--3--3--3--3--2--2--2--2-2-|
B|-1--1--1--1--1-1--1--1--1--1-3--3--3--3--3--3--3--3--3-3-|
G|-2--2--2--2--2-0--0--0--0--0-0--0--0--0--0--2--2--2--2-2-|
D|-2--2--2--2--2-2--2--2--2--2-0--0--0--0--0--0--0--0--0-0-|
A|-0--0--0--0--0-3--3--3--3--3-2--2--2--2--2---------------|
E|-----------------------------3--3--3--3--3---------------|

  Guitar 1
e|------------3/8--8--8\7--7--7\5--5-\3-3--3/5--5--5-5/8---|
B|---------------------------------------------------------|
G|-3b---2-----0/5--5--5\4--4--4\2--2-\0-0--0/2--2--2-2/5---|
D|---------------------------------------------------------|
A|---------------------------------------------------------|
E|---------------------------------------------------------|
 |                                                         |
 |Guitar 2                                                 |
 |Am             C             G              D            |
e|-0--0--0--0--0-0--0--0--0--0-3--3--3--3--3--2--2--2--2-2-|
B|-1--1--1--1--1-1--1--1--1--1-3--3--3--3--3--3--3--3--3-3-|
G|-2--2--2--2--2-0--0--0--0--0-0--0--0--0--0--2--2--2--2-2-|
D|-2--2--2--2--2-2--2--2--2--2-0--0--0--0--0--0--0--0--0-0-|
A|-0--0--0--0--0-3--3--3--3--3-2--2--2--2--2---------------|
E|-----------------------------3--3--3--3--3---------------|

  Guitar 1
e|-5--5/8--8/10-\8-\7-\5--5---8b--8b---8-------------------|
B|----------------------------------------10--8--10b--10---|
G|-2--2/5--5/7--\5-\4-\2--2--------------------------------|
D|---------------------------------------------------------|
A|---------------------------------------------------------|
E|---------------------------------------------------------|
 |                                                         |
 |Guitar 2                                                 |
 |Am             C             G              D            |
e|-0--0--0--0--0-0--0--0--0--0-3--3--3--3--3--2--2--2--2-2-|
B|-1--1--1--1--1-1--1--1--1--1-3--3--3--3--3--3--3--3--3-3-|
G|-2--2--2--2--2-0--0--0--0--0-0--0--0--0--0--2--2--2--2-2-|
D|-2--2--2--2--2-2--2--2--2--2-0--0--0--0--0--0--0--0--0-0-|
A|-0--0--0--0--0-3--3--3--3--3-2--2--2--2--2---------------|
E|-----------------------------3--3--3--3--3---------------|

  Guitar 1
e|---------------------------------------------------------|
B|---------------------------------------3-5-8-5-8-10b-10b-|
G|-3---0-----0-----------0-2---2-0-5-2-5-------------------|
D|---------------------2-----------------------------------|
A|-----------------0-3-------------------------------------|
E|---------------3-----------------------------------------|
 |                                                         |
 |Guitar 2                                                 |
 |Am             C             G              D            |
e|-0--0--0--0--0-0--0--0--0--0-3--3--3--3--3--2--2--2--2-2-|
B|-1--1--1--1--1-1--1--1--1--1-3--3--3--3--3--3--3--3--3-3-|
G|-2--2--2--2--2-0--0--0--0--0-0--0--0--0--0--2--2--2--2-2-|
D|-2--2--2--2--2-2--2--2--2--2-0--0--0--0--0--0--0--0--0-0-|
A|-0--0--0--0--0-3--3--3--3--3-2--2--2--2--2---------------|
E|-----------------------------3--3--3--3--3---------------|

---------CHORUS----------

----------OUTRO----------

  Guitar 2                                           
   Am         F           G          D            
e|-0---0--0---1---1--1--1-3---3--3---2--2--2---2-|
B|-1---1--1---1---1--1--1-3---3--3---3--3--3---3-|
G|-2---2--2---2---2--2--2-0---0--0---2--2--2---2-|
D|-2---2--2---3---3--3--3-0---0--0---0--0--0---0-|  x2
A|-0---0--0---3---3--3--3-2---2--2---------------|
E|------------1---1--1--1-3---3--3---------------|

                          "Where are you now?"

  Guitar 2                                           
   Am         F           G          D            
e|-0---0--0---1---1--1--1-3---3--3---2--2--2---2-|
B|-1---1--1---1---1--1--1-3---3--3---3--3--3---3-|
G|-2---2--2---2---2--2--2-0---0--0---2--2--2---2-|
D|-2---2--2---3---3--3--3-0---0--0---0--0--0---0-|
A|-0---0--0---3---3--3--3-2---2--2---------------|
E|------------1---1--1--1-3---3--3---------------|

"Gotta ask yourself the question, where are you now"

  Guitar 2                                           
   Am         F           G          D            
e|-0---0--0---1---1--1--1-3----------------------|
B|-1---1--1---1---1--1--1-3----------3-----------|
G|-2---2--2---2---2--2--2-0----------2-----------|
D|-2---2--2---3---3--3--3-0----------0-----------|
A|-0---0--0---3---3--3--3-2----------------------|
E|------------1---1--1--1-3----------------------|

"Gotta ask yourself the question, where are you now"

| /  slide up
| \  slide down
| h  hammer-on
| p  pull-off
| T  tap body
Tap to rate this tab
# A B C D E F G H I J K L M N O P Q R S T U V W X Y Z