Guitaretab - guitar tabs
Song name
# A B C D E F G H I J K L M N O P Q R S T U V W X Y Z

James Blunt - So Long Jimmy tab

James Blunt - So Long, Jimmy

Chords:
                E A D G B e
                -----------
Am              - 0 2 2 1 0
C               - 3 2 0 1 0
F               1 3 3 2 1 1
Em              0 2 2 0 0 0
Bb              - 1 3 3 3 1
Em7             0 2 2 0 3 0
D               - - 0 2 3 2
G               3 2 0 0 3 3

Intro
  Am
e|-------------------|
B|-----1-----1-------|
G|-----2-----2-------|
D|-0h2---0h2---------|
A|-------------0*-2*-|
E|-------------------|10x (play 0 2 only the 10th time)

  C
e|-------------|---------------|
B|-----1-----1-|-----1-----1---|
G|-----0-----0-|-----0-----0---|
D|-0h2---0h2---|-0h2---0h2-----|
A|-3-----------|-------------2-|
E|-------------|---------------|

  F
e|-------------|
B|-----1-----1-|
G|-0h2---0h2---|
D|-3-----3-----|
A|-------------|
E|-------------|2x

  Em                  Bb
e|-------------|------------|
B|-----0-----0-|----0---3-3-|
G|-----0-----0-|----0-3-3-3-|
D|-0h2---0h2---|0h2-------3-|
A|-------------|------------|
E|-------------|------------|2x

Verse 1
|Am   |Am   |C   |C   |F   |F   |Em Bb |Am   |Am   |Em   |Em Em7*

Chorus
|C   |Em   |Am C |F   |C   |Am C |D   |F   |G

Interlude
|Am   |Am   |Am   |Am*

Verse 2
Repeat verse 1

Chorus

Interlude
|Am   |Am   |Am   |Am
[ Tab from: http://www.guitaretab.com/j/james-blunt/62084.html ]
Solo
|Am   |Am   |Am   |Am*   |Am*   |Am*   |Am   |Am   |Am   |Am   |Am
|Am    |Am   |Am   |Am   |Am * |*   |*

Outro
|Am   9x (dissapears the 9th time)

Play all the chords except the chords in the chorus the same as in the intro, except if
given on else. (see down)

Em7* in verse 1 & 2:
e|-----|
B|---3-|
G|---0-|
D|-2---|
A|-----|
E|-----|

Am* in the first interlude:
e|---------------------|
B|-----1-----1-----3\1-|
G|-----2-----2---------|
D|-0h2---0h2---2/4-4\2-|
A|---------------------|
E|---------------------|

Am*, Am*, Am* in solo:
e|---------------------------|---------------|-------------|
B|---------------------------|-1-x-x---1-x-x-|-x-----1-x-x-|
G|---------------------------|-2-x-x---2-x-x-|-x-----2-x-x-|
D|-------7-------7-------7---|-2-----2-------|---0h2-------|
A|-0-5h7---0-5h7---0-5h7---0-|---------------|-------------|
E|---------------------------|---------------|-------------|

*'s in solo:
e-------------|-0-----|-----|
B-----1-1-1p0-|---0-1-|-----|
G-----2-2-----|-------|-0-1-|
D-0h2---------|-------|-----|
A-------------|-------|-----|
E-------------|-------|-----|

| /  slide up
| \  slide down
| h  hammer-on
| p  pull-off
| x  Mute note

If you want the tab in Guitar Pro, email me to 'marito-janso@hotmail.com', I put it in a PDF-file.
Related for So Long Jimmy tab