Song name
# A B C D E F G H I J K L M N O P Q R S T U V W X Y Z

James Brown - Play That Funky Music tab

im gettin pissed that people keep tabing this part wrong. here is the right way to play it

e|------------------------|
B|------------------------|
G|------------------------|
D|-----5-3-5-----3-5---X4-|
A|-----------3-5----------|
e|-3-3--------------------|

then

e|------------------------------------------------------------------------|
B|------------------------------------------------------------------------|
G|------------------------------------------------------------------------|
D|-----7-5-7-----5-7-----9-7-9-----7-9-----5-3-5----3-5-----5-3-5-----3-5-|
A|-----------5-7---------------7-9---------------3-5--------------3-5-----|
e|-5-5---------------7-7---------------3-3--------------3-3---------------|


please rate after u read it or e-mail me to tell me what u think(rebelblader74@myway.com)
Tap to rate this tab
 
# A B C D E F G H I J K L M N O P Q R S T U V W X Y Z