Song name
# A B C D E F G H I J K L M N O P Q R S T U V W X Y Z

James Brown - I Got You I Feel Good tab

-------------------------------------------------------------------------------
                             I FEEL GOOD - James Brown
-------------------------------------------------------------------------------
Tabbed by: Jacob
E-mail: jacobhakansson@icloud.com

Tuning: standard (e b g d a e)

e|--------------------------------------9------------|
B|----------------5\4---5\4---5\4---5---7------------|
G|----------------5\4---5\4---5\4---5---7------------|       x2
D|----------------4\3---4\3---4\3---4----------------|
A|----------------5\4---5\4---5\4---5----------------|
E|---------------------------------------------------|
   I feel good...
e|--------------------------------------7------------|
B|----------------6\5---6\5---6\5---6---6------------|
G|----------------4\3---4\3---4\3---4---7------------|
D|----------------3\2---3\2---3\2---3---5------------|
A|----------------5\4---5\4---5\4---5----------------|
E|----------------3\2---3\2---3\2---3----------------|
   I feel good...
e|--------------------------------------9------------|
B|----------------5\4---5\4---5\4---5---7------------|
G|----------------5\4---5\4---5\4---5---7------------|       
D|----------------4\3---4\3---4\3---4----------------|
A|----------------5\4---5\4---5\4---5----------------|
E|---------------------------------------------------|

e|----------------------------------------------------------------------------|
B|--------------8---8----------------6---6------------------------------------|
G|--------------6---6----------------4---4----------------------5----9--------|
D|--------------5---5----------------3---3-----------4----7-------------------|
A|--------------7---7----------------5---5------5-----------------------------|
E|--------------5---5----------------3---3------------------------------------|
   So good...          So good...

 Repeat through the whole song and thats pretty much all of it

Cheers
************************************

| /   slide up
| \   slide down
| h   hammer-on
| p   pull-off
| ~   vibrato
| +   harmonic
| x   Mute note
| b   Bend
| pb  Pre-bend
| br  Bend release
| pbr Pre-bend release
| brb Bend release bend

************************************
Tap to rate this tab
# A B C D E F G H I J K L M N O P Q R S T U V W X Y Z