Song name
# A B C D E F G H I J K L M N O P Q R S T U V W X Y Z

James Brown - The Payback tab

---------------------
The Payback
---------------------
from James Brown album "The Payback"
tab by Matt Clark, Matt.Clark@umit.maine.edu

 Beginning

 Bass
|------------------------------------------------------------------------------|
|------------------------------------------------------------------------------|
|------------------------------------------------------------------------------|
|--5--0--3------------5--0--3-----------5--0--3------------5--0--3-------------|


 Guitar - left speaker - these notes are palm muted with the right hand
|------------------------------------------------------------------------------|
|------------------------------------------------------------------------------|
|------------------------------------------------------------------------------|
|------------------------------------------------------------------------------|
|-------------5-3---3------------5-3---3------------5-3---3------------5-3---3-|
|-----------------5------------------5------------------5------------------5---|


 Guitar - right speaker - with wah wah
|----------5------------------8------------------10----------------12----------|
|----------5------------------8------------------10----------------10----------|
|------------------------------------------------------------------------------|
|------------------------------------------------------------------------------|
|------------------------------------------------------------------------------|
|------------------------------------------------------------------------------|

Then there is a little pause when the horns play A, C, D - then it goes to the
main part.


 Bass - (5) means ghost note.
|------------------------------------------------------------------------------|
|------------------------------------------------------------------------------|
|------------------------------------------------------------------------------|
|--(5)--3--5------------(5)--3--5-----------(5)--3--5------------(5)--3--5-----|


 Guitar - left speaker
|------------------------------------------------------------------------------|
|--7--x--7--x--7--x--7--x--8--8---7--x--7--x--7--x--x--x--x--x--x--x--x--------|
|--5--x--5--x--5--x--5--x--6--6---5--x--5--x--5--x--x--x--x--x--x--x--x--------|
|------------------------------------------------------------------------------|
|------------------------------------------------------------------------------|
|------------------------------------------------------------------------------|


 Guitar - right speaker
|--------------------------------------------------8-\-7-\-6-\-5---------------|
|--------------------------------------------------8-\-7-\-6-\-5---------------|
|------------------------------------------------------------------------------|
|------------------------------------------------------------------------------|
|------------------------------------------------------------------------------|
|------------------------------------------------------------------------------|
 / means slide to the next note.


Lyrics:

nope
Tap to rate this tab
# A B C D E F G H I J K L M N O P Q R S T U V W X Y Z