Song name
# A B C D E F G H I J K L M N O P Q R S T U V W X Y Z

James Cottriall - So Nice Acoustic tab

###############################
#  JAMES COTTRIALL  SO NICE  #
###############################

Tabbed by Philipp Ridjic

Standard-Tuning (EADGBe)


   C    G    Am   F
E[-8----3----5----1--]
B[-8----3----5----1--]
G[-9----4----5----2--]
D[-10---5----7----3--]
A[-10---5----7----3--]
E[-8----3----5----1--]


VERSE/CHORUS-RIFF:

   C            G             Am          F
E[-----8-----8------3-------------5-----5-----1-----1---]
B[-----8-----8------3-------------5-----5-----1-----1---]
G[-----9-----9------4-------------5-----5-----2-----2---]
D[-----10----10-----5-------------6-----6-----3-----3---]
A[---10----10-----5-----5---5---6-----6-----3-----3-----]
E[-8-----8------3-----3---4---5-----5-----1-----1-------]



BRIDGE-RIFF:

   G             Am            G             F
E[-----3-------------5-------------3-----3---1----------]
B[-----3-------------5-------------3-----3---1----------]
G[-----4-------------5-------------4-----4---2----------]
D[-----5-------------6-------------5-----5---3----------]
A[---5-----5---5---6-----6---6---5-----5-----3----------]
E[-3-----3---4---5-----5---4---3-----3-------1----------]



VERSE/CHORUS-RIFF
C - G - Am - F

This day has just begun
but i fell like somehow I've already won.
Let me tell you why.
I wake up next to you,
I kiss your face then get on with the things I got to do and it feels so nice.
It feels soo nice,
Soo nice
I'd like to kiss you twice would that be alright with you?
I don't really want to overstop the mark,				
but I want to stay here with you.

BRIDGE-RIFF
G - Am - G - F

'Cause there's only one like you.
Only one that makes me feel the way you do.

VERSE/CHORUS-RIFF
C - G - Am - F

So take my hand, run away, never look back, and you know that it'll be alright.
So take my hand, run away, never look back, cause you know that it'll be alright.

VERSE/CHORUS-RIFF
C - G - Am - F

Well we've been here before.
We've been waiting on something a little bit more.
More than a smile that only lasts a while.
I wanna see every single one of your teeth when your lips part for that while 
'cause it looks so nice.
It looks so nice.
Won't you glance in my direction? Share your loving and affection With me?
With me?
But let's not move to fast, 'cause i really want this to last.

BRIDGE-RIFF
G - Am - G - F

'Cause there's only one like you.
Only one that makes me feel the way you do.

VERSE/CHORUS-RIFF
C - G - Am - F

So take my hand, run away, never look back, and you know that it'll be alright.
So take my hand, run away, never look back, cause you know that it'll be alright.
Tap to rate this tab
 
# A B C D E F G H I J K L M N O P Q R S T U V W X Y Z