Song name
# A B C D E F G H I J K L M N O P Q R S T U V W X Y Z

James Dean Bradfield - Still A Long Way To Go tab

James Dean Bradfield - Still A Long Way to Go

Capo 1 - All tab here relative to Capo 1
riff between chords:

G|-0-0-0-0-0-0-|
B|-1-1h3-1-0-1-|
e|-0-0-0-0-0-0-|

Verse:
Bass strum for following sounds good:
  G D5* Em  C Csus
E-3-----0---------|
A-2-----2---3---3-|
D-0--0--2---2---2-|
G-0--2------0---0-|
B-3--x------1---0-|
e-3--x------------|

Verse
G G riff D5* D5* riff Em Em riff C Csus C Csus x2

Interlude
   C5                D5                G5               C5/E
E|-------------------------------------3-3-3-33-3-3-3-33-0-0-0-00-0-0-0-00-|
A|-3-3-3-33-3-3-3-33-5-5-5-55-5-5-5-50-5-5-5-55-5-5-5-55-3-3-3-33-3-3-3-33-|
D|-5-5-5-55-5-5-5-55-7-7-7-77-7-7-7-77-5-5-5-55-5-5-5-55-5-5-5-55-5-5-5-55-|
G|-5-5-5-55-5-5-5-55-7-7-7-77-7-7-7-77-------------------------------------|
B|-------------------------------------------------------------------------|
e|-------------------------------------------------------------------------|

Chorus
  C5/G             D               G5              Cadd9
E|-3-3-3-3-3-3-3-3-----------------3-3-3-3-3-3-3-3-----------------|
A|-3-3-3-3-3-3-3-3-----------------2-2-2-2-2-2-2-2-3-3-3-3-3-3-3-3-|
D|-5-5-5-5-5-5-5-5-0-0-0-0-0-0-0-0-0-0-0-0-0-0-0-0-2-2-2-2-2-2-2-2-|
G|-5-5-5-5-5-5-5-5-2-2-2-2-2-2-2-2-0-0-0-0-0-0-0-0-0-0-0-0-0-0-0-0-|
B|-----------------3-3-3-3-3-3-3-3-3-3-3-3-3-3-3-3-3-3-3-3-3-3-3-3-|
e|-----------------2-2-2-2-2-2-2-2-3-3-3-3-3-3-3-3-0-0-0-0-0-0-0-0-|x2

Repeat All

Great melody, great tune

Any questions/comments please email paragonsweetie@gmail.com
Please rate guys
I have also submitted tab for English Gentleman from his album too
Tap to rate this tab
# A B C D E F G H I J K L M N O P Q R S T U V W X Y Z