Song name
# A B C D E F G H I J K L M N O P Q R S T U V W X Y Z

James Elmore - Madison Blues tab

-----------------------------------------------------------------------------
                          MADISON BLUES - Elmore James
-----------------------------------------------------------------------------

Tabbed by:refewz

Tuning: Open D (DADF#AD)
This tab is for the intro to Madison Blues, played with a slide. The
beginning of this song has some really cool guitar from Elmore James.

   D             G                             D                        A
D |-10-12-------|--3-5-----|------12----12----|-----------|------------|-12-|
A |-10-12-------|--3-5-----|---12----12----12-|-----------|---------12-|----|
F#|-------(12)-o|------(5)-|------------------|-/11-------|-----/12----|----|
D |--------12--o|-------5--|------------------|-----12----|--12--------|----|
A |--------12---|-------5--|------------------|--------12-|------------|----|
D |-------------|----------|------------------|-----------|------------|----|

   G                         D
D |-12-----12-----12--------|---------|------------|-12---|------------|-12-|
A |----/12----/12----/12\10-|---------|---------12-|------|---------12-|----|
F#|-------------------------|-/12-----|-----/12----|------|-----/12----|----|
D |-------------------------|-----12--|--12--------|------|--12--------|----|
A |-------------------------|---------|------------|------|------------|----|
D |-------------------------|---------|------------|------|------------|----|

                           G                                 D
D |--12-----12-----12-----|-12---|------------12-----12-----|-12---|--12\---|
A |-----/12----/12----/12-|------|---------12----/12----/12-|------|-----12-|
F#|-----------------------|------|-----/12------------------|------|--------|
D |-----------------------|------|--12----------------------|------|--------|
A |-----------------------|------|--------------------------|------|--------|
D |-----------------------|------|--------------------------|------|--------|

   A                   G                           D
D |-12-----12-----12-|-12-----12-----12-----------|------|
A |----/12----/12----|----/12----/12----/12\10----|------|
F#|------------------|-------------------------12-|------|
D |------------------|----------------------------|-12\--|
A |------------------|----------------------------|------|
D |------------------|----------------------------|------|


************************************

| /   slide up
| \   slide down

Tap to rate this tab
# A B C D E F G H I J K L M N O P Q R S T U V W X Y Z