Song name
# A B C D E F G H I J K L M N O P Q R S T U V W X Y Z

James Elmore - I Cant Hold Out tab

-----------------------------------------------------------------------------
                       I CAN'T HOLD OUT - Elmore James
-----------------------------------------------------------------------------
Tabbed by: refewz

Tuning: Open D (DADF#AD)

This song by the king of slide guitar should be played with a slide, of
course. I play this acoustic or electric. Learning Elmo's licks is a great
way to pick up soloing with a slide.

INTRO:           G              D
D |-/15---12----|-------|------|-/12-12-12--/12-12-12--/12-12-12--/12-12-12-|
A |-------------|-------|------|-/12-12-12--/12-12-12--/12-12-12--/12-12-12-|
F#|------------o|-------|------|--------------------------------------------|
D |------------o|-------|------|--------------------------------------------|
A |-------------|-------|------|--------------------------------------------|
D |-------------|-------|------|--------------------------------------------|

                A                        G                D             
D |---------12-|-12--12----12-----------|-12-12----12----|-------------|-12-|
A |------12----|--------12----12--------|-------12----12-|-------------|-12-|
F#|-/12\-------|-----------------/11----|----------------|-/11-----/12-|----|
D |------------|---------------------12-|----------------|-----12\-----|----|
A |------------|------------------------|----------------|-------------|----|
D |------------|------------------------|----------------|-------------|----|

              
VERSE:  D   G         D
D |--------|----|----|-/12-12-12--/12-12-12--/12-12-12--/12-12-12-|------|
A |--------|----|----|-/12-12-12--/12-12-12--/12-12-12--/12-12-12-|------|
F#|----x4-o|----|----|--------------------------------------------|-/12\-|
D |-------o|----|----|--------------------------------------------|------|
A |--------|----|----|--------------------------------------------|------|
D |--------|----|----|--------------------------------------------|------|

   A    G    D
D |----|----|-12---|---------|
A |----|----|-12---|---------|
F#|----|----|------|--------o|
D |----|----|------|--------o|
A |----|----|------|---------|
D |----|----|------|---------|

SOLO: D
D |-----12-12-/12-12-12-/12-12-12-/12-12-12-|----12---|----12-12---12-12-15-|
A |-/12-12-12-/12-12-12-/12-12-12-/12-12-12-|----12---|-12------------------|
F#|-----------------------------------------|/12------|---------------------|
D |-----------------------------------------|---------|---------------------|
A |-----------------------------------------|---------|---------------------|
D |-----------------------------------------|---------|---------------------|

                          G                                    D
D |-12----------------12-|-12-12-----------|------12-12-------|-------------|
A |----12---------/12----|-------12--------|--/12-------12----|-------------|
F#|-------/11------------|----------/11----|---------------11-|---------/12-|
D |-----------12---------|--------------12-|------------------|-12----------|
A |----------------------|-----------------|------------------|----12\------|
D |----------------------|-----------------|------------------|-------------|

                  A                 G                D
D |-12-----------|-12--------------|-12-12----12----|------------|-----|
A |-----------12-|----12-----------|-------12----12-|------------|-----|
F#|-------/12----|-------/11-------|----------------|-/11--------|-----|
D |--------------|-----------12----|----------------|-----12-----|-----|
A |--------------|--------------12-|----------------|------------|-----|
D |--------------|-----------------|----------------|------------|-----|

       Talk to me baby...
OUTRO:
D |---------------------|-/12-/12-/12-/12-/12-/12----|
A |---------------------|-/12-/12-/12-/12-/12-/12----|
F#|---------------------|---------------------------o|
D |---------------------|---------------------------o|
A |---------------------|----------------------------|
D |---------------------|----------------------------|


************************************

| /   slide up
| \   slide down
Tap to rate this tab
# A B C D E F G H I J K L M N O P Q R S T U V W X Y Z