Guitaretab - guitar tabs
Song name
# A B C D E F G H I J K L M N O P Q R S T U V W X Y Z

James Gang - Cruisin Down The Highway tab

-------------------------------------------------------------------------------
			     Cruisin' Down The Highway - James Gang
-------------------------------------------------------------------------------
Tabbed by: wg99

Tuning: Standard

Chords used:
E     x7999x
D     x5777x
A     57765x

Intro/Verse rhythm(Riff 1):
e|--------------------------------|--------------------------|
B|--9--9--x--7--7--x--5--5--9-----|--9--9--x--7--7--5---(5)--|
G|--9--9--x--7--7--x--6--6--9-----|--9--9--x--7--7--6---(6)--|
D|--9--9--x--7--7--x--7--7--9-----|--9--9--x--7--7--7---(7)--|
A|--7--7--x--5--5--x--7--7--7-----|--7--7--x--5--5--7---(7)--|
E|--------------------5--5--------|-----------------5---(5)--|

Riff 2:
e|--------------------------------|---------------------|
B|--9--9--x--7--7--x--5--5--9-----|--7----5----9---(9)--|
G|--9--9--x--7--7--x--6--6--9-----|--7----6----9---(9)--|
D|--9--9--x--7--7--x--7--7--9-----|--7----7----9---(9)--|
A|--7--7--x--5--5--x--7--7--7-----|--5----7----7---(7)--|
E|--------------------5--5--------|-------5-------------|

[ Tab from: http://www.guitaretab.com/j/james-gang/110699.html ]
Chorus riff(Riff 3)
e|------------------------------|----------------------------|
B|------------------------------|----------------------------|
G|------------------------------|----------------------------|
D|--------------------------2-0-|----------------------2-0---|
A|--0h2-2-2-0h2-2-2-0h2-2-2-----|--0h2-2-2-0h2-2-2-0h2-------|
E|------------------------------|----------------------------|


Riff 4
e|------------------------------|----------------------------|
B|------------------------------|----------------------------|
G|--------------------------2-0-|----------------------2-0---|
D|--0h2-2-2-0h2-2-2-0h2-2-2-----|--0h2-2-2-0h2-2-2-0h2-------|
A|------------------------------|----------------------------|
E|------------------------------|----------------------------|

And this is how you play them:
Riff 1 (x3)
Riff 2
Riff 1 (x6)
Riff 3 (x2)
Riff 1 (x6)
Riff 3 (x2)
(Guitar solo, no rhythm guitar)
Riff 3 (x2)
Riff 4 (x2)
Riff 3 (x2)
Riff 4 (x2)
...
and so on till fade.


| /  slide up
| \  slide down
| h  hammer-on
| p  pull-off
| ~  vibrato
| +  harmonic
| x  Mute note
===============================================================================
Related for Cruisin Down The Highway tab
Advertisement will be closed in 10 seconds