Song name
# A B C D E F G H I J K L M N O P Q R S T U V W X Y Z

James Grehan - Hold On tab

Song: Hold On
Artist: James Grehan

This is my 1st tab and it is not 100% accurate but it should give you a general
idea of how it is played.
If you listen to the song u will get the timing right

CHORDS:  G - G/F - F - C

      G
e[------------------------------------------------------------------10--|
b[-----------12~~-----13p12----------------------8--------10p8----------|
g[---------0~~~~~0----------0~~~---0~~~--------0~~~0------------0~~~----|
d[---10h12---------12-----------12--------9h10--------10----------------|
a[----------------------------------------------------------------------|
E[----------------------------------------------------------------------|


     F            C      G
e[------------------------------------- ]
b[---------1--------------------------- ]
g[-------0~~-0~~---------2h3p2-----0~~~ ] Repeat with variation
d[---2h3-------------2---------3------- ]
a[-----------------3------------------- ]
E[------------------------------------- ]


 Main Verse:

      G
 [------------------------------------------------------------------10--|
 [-----------12~~-----13p12----------------------8--------10p8----------|
 [---------0~~~~~0----------0~~~---0~~~--------0~~~0------------0~~~----|
 [---10h12---------12-----------12--------9h10--------10----------------|
 [----------------------------------------------------------------------|
 [----------------------------------------------------------------------|
    Find the one that keeps you from the cold........


      F
 [-----------------------------3--------|
 [---------1-----------1-------3--------|
 [-------0~~-0~~--------0------0--------|
 [---2h3-------------2---------0--------|
 [-----------------3-----------2--------|
 [-----------------------------3--------|
   Find the one that helps light the way....


http://www.jamesgrehan.com/index.php
Tap to rate this tab
 
# A B C D E F G H I J K L M N O P Q R S T U V W X Y Z