Song name
# A B C D E F G H I J K L M N O P Q R S T U V W X Y Z

James Horner - My Heart Will Go On tab

Song: James Horner
Artist: Celine Dion
Tabber: Tye1989

This is the tab for My Heart Will Go On by Celine Dion, it was the main theme tune to Titanic.
I think it sounds really cool, the ending goes all funky and I couldn't get it down, I 
this from a midi file I found, hope you enjoy :D

||---------------------8-----------------------------------||
||----8-10-11-10-8---8----11-10------------8-10-11-10-8---8||
||-10-------------10------------10-7----10-------------10--||
||-----------------------------------10--------------------||
||---------------------------------------------------------||
||---------------------------------------------------------||

||-8----8-10-8--|------------------------------------------------||
||---10--------8|----------------------8-10-8--------------------||
||--------------|10-10-10-9-10-10-9-10--------10-10-10-9-10-10---||x2
||--------------|----------------------------------------------10||
||--------------|------------------------------------------------||
||--------------|------------------------------------------------||

||-------------------------------------------------------||
||----------------13-11-10----10-11-10-------------------||
||-7---9-10-12-------------12----------12-10-9-10-9-7-5--||
||-------------10----------------------------------------||
||-------------------------------------------------------||
||-------------------------------------------------------||

||----------------------------------------------------------||
||----------13-11-10----10-11-10----------------------------||
||-10-12-------------12----------12-10-9-10-9-9-10-12-14-12-||
||-------10-------------------------------------------------||
||----------------------------------------------------------||
||----------------------------------------------------------||

||-------------------------8-------------------------------||
||-------8-10-11-10-8----8---11-10------------8-10-11-10-8-||
||-10-10--------------10-----------10-7----10--------------||
||--------------------------------------10-----------------||
||---------------------------------------------------------||
||---------------------------------------------------------||

||------8----8-10-8----------------------------------------||
||----8---10--------8-6------------------------------------||
||-10-------------------7-5--------------------------------||
||---------------------------------------------------------||
||---------------------------------------------------------||
||---------------------------------------------------------||

Cheers!
Tye1989
Tap to rate this tab
# A B C D E F G H I J K L M N O P Q R S T U V W X Y Z