Song name
# A B C D E F G H I J K L M N O P Q R S T U V W X Y Z

James Horner - Nearer My God To Thee tab

Hi! there's the song "Nearer my God to thee" (JAmes horner) that is played in the 
movie Titanic. It's very easy to play, hope you enjoy it!




e|-------------------------------------------------------------------------|
B|-------------------------------------------------------------------------|
G|-------------------------------------------------------------------------|
D|--2---0-----------------------------------2---0--------------------------|
A|------------3---3----0--0-----------3------------------------------------|
E|--------------------------------3----------------------------------------|


e|-------------------------------------------------------------------------|
B|-------------------------------------------------------------------------|
G|-------------------------------------------------------------------------|
D|--2---0-------------------------------------0----------------------------|
A|------------3---3----0--0-----------3---2-------3------------------------|
E|--------------------------------3----------------------------------------|


e|-------------------------------------------------------------------------|
B|-------------------------------------------------------------------------|
G|--0---2---0---0-----0-----------0---2---0---0----------------------------|
D|-----------------2------------------------------2---0--------------------|
A|-------------------------------------------------------------------------|
E|-------------------------------------------------------------------------|


e|-------------------------------------------------------------------------|
B|-------------------------------------------------------------------------|
G|-------------------------------------------------------------------------|
D|--2---0-------------------------------------0----------------------------|
A|------------3---3----0--0-----------3---2-------3------------------------|
E|--------------------------------3----------------------------------------|




e|--0----------------------------------0-----------------------------------|
B|-----3---1---1-------------------1--------3------------------------------|
G|-----------------2---2-------0-------------------------------------------|
D|-------------------------------------------------------------------------|
A|-------------------------------------------------------------------------|
E|-------------------------------------------------------------------------|


e|--0----------------------------------------------------------------------|
B|-----3---1---1-------------------1---0---3----1--------------------------|
G|-----------------2---2-------0-------------------------------------------|
D|-------------------------------------------------------------------------|
A|-------------------------------------------------------------------------|
E|-------------------------------------------------------------------------|


e|--3---5---3---3---0---3------3---5---3---3---0---------------------------|
B|-------------------------------------------------3-----------------------|
G|-------------------------------------------------------------------------|
D|-------------------------------------------------------------------------|
A|-------------------------------------------------------------------------|
E|-------------------------------------------------------------------------|


e|--0----------------------------------------------------------------------|
B|-----3---1---1-------------------1---0---3----1--------------------------|
G|-----------------2---2-------0-------------------------------------------|
D|-------------------------------------------------------------------------|
A|-------------------------------------------------------------------------|
E|-------------------------------------------------------------------------|




e|-------------------------------------------------------------------------|
B|-------------------------------------------------------------------------|
G|-------------------------------------------------------------------------|
D|--2---0-----------------------------------2---0--------------------------|
A|------------3---3----0--0-----------3------------------------------------|
E|--------------------------------3----------------------------------------|


e|-------------------------------------------------------------------------|
B|-------------------------------------------------------------------------|
G|-------------------------------------------------------------------------|
D|--2---0-------------------------------------0----------------------------|
A|------------3---3----0--0-----------3---2-------3------------------------|
E|--------------------------------3----------------------------------------|


e|-------------------------------------------------------------------------|
B|-------------------------------------------------------------------------|
G|--0---2---0---0-----0-----------0---2---0---0----------------------------|
D|-----------------2------------------------------2---0--------------------|
A|-------------------------------------------------------------------------|
E|-------------------------------------------------------------------------|


e|-------------------------------------------------------------------------|
B|-------------------------------------------------------------------------|
G|-------------------------------------------------------------------------|
D|--2---0-------------------------------------0----------------------------|
A|------------3---3----0--0-----------3---2-------3------------------------|
E|--------------------------------3----------------------------------------|

Tap to rate this tab
 
# A B C D E F G H I J K L M N O P Q R S T U V W X Y Z