Song name
# A B C D E F G H I J K L M N O P Q R S T U V W X Y Z

James Horner - Braveheart Theme tab

This is one of my first tabs. Also when the part of the bagpipes come in you can 
do pauses on and off make it your own.

Braveheart Theme

James Horner






X4
||-----------------7h8------7------7h8p7------------------------------------|
||-----8---10-------------- 0--------------10---8---8---8h10----------------|
||-9---9-------0----------------------------------- 0--------------9--------|
||---------------0-0--------------------------------------------------------|
||-0------- 8 ----------------------------- 0---0------------------0--------|
||--------------------------------------------------------------------------|

E|--------------------------------------------------------|
B|----5-7-8~~~-7-5-----------15---17~~19--17---15---------|
G|--7----------------7-----------------------------16--14-|
D|--------------------------------------------------------|
A|--------------------------------------------------------|
E|--------------------------------------------------------|


X2
E|------------------                     E|--------------------|
B|------------------                     B|10--8~~~~~----------|
G|11/7---9--11--9--- Then repeat         G|-----------7~~~7~~~-|
D|------------------ on second run this  D|--------------------|
A|------------------ after this end part.A|--------------------|
E|------------------                     E|--------------------|

X3
||------------------7h8-----7------7h8p7----------------------------------|
||-----8----8h10---------------------------10---8---8/10------------------|
||-9------------------------0-----------------------0---------------------|
||-----0------------0---------------------------0-------------------------|
||-0----------------------------------------0-----------------------------|
||------------------------------------------------------------------------|


||-----------------------------------------------------------------------|
||-----8----10----8------------------------------------------------------|
||-9---0----------0------9----7---------7---10---9---7-------------------|
||---------- 0-------------------10---------0-----------10--7------------|
||-----------------------0----0---0--------------0-------0---------------|
||-0--------------------------------------------------------0------------|

||-----------------7h8------7------7h8p7-----------------------------|
||-----8---8h10----------------------------10---8---8---8h10---------|
||-9-----------------------------------------------------------------|
||-------------------------------------------------------------------|
||-------------------------------------------------------------------|
||-------------------------------------------------------------------|

E|--------------------------------------------------------|
B|----5-7-8~~~-7-5-----------15---17~~19--17---15---------|
G|--7----------------7-----------------------------16--14-|
D|--------------------------------------------------------|
A|--------------------------------------------------------|
E|--------------------------------------------------------|

X2
E|------------------                     E|--------------------|
B|------------------                     B|10--8~~~~~----------|
G|11/7---9--11--9--- Then repeat         G|-----------7~~~7~~~-|
D|------------------ on second run this  D|--------------------|
A|------------------ after this end part.A|--------------------|
E|----------------------------------     E|--------------------|

                                             
||------------------7h8-----7------7h8p7----------------------------------|
||-----8----8h10---------------------------10---8---8/10------------------|
||-9------------------------0-----------------------0---------------------|
||-----0------------0---------------------------0-------------------------|
||-0----------------------------------------0-----------------------------|
||------------------------------------------------------------------------|


||-----------------------------------------------------------------------|
||-----8----10----8------------------------------------------------------|
||-9---0----------0------9----7---------7---10---9---7-------------------|
||---------- 0-------------------10---------0-----------10--7------------|
||-----------------------0----0---0--------------0-------0---------------|
||-0--------------------------------------------------------0------------|

||-----------------7h8------7------7h8p7-----------------------------|
||-----8---8h10----------------------------10---8---8---8h10---------|
||-9-----------------------------------------------------------------|
||-------------------------------------------------------------------|
||-------------------------------------------------------------------|
||-------------------------------------------------------------------|
Tap to rate this tab
# A B C D E F G H I J K L M N O P Q R S T U V W X Y Z