Song name
# A B C D E F G H I J K L M N O P Q R S T U V W X Y Z

James Ingram - Somewhere Out There tab

James Ingram
Somewhere Out There
(American Tail Soundtrack)
Tuning: Standard
Transcribed by Soch H.

Guitar Solo: (2:17)
|-----------------------------------------------|
|-------------------------------------17~-------|
|-------------------------14-16b18==------------|
|-------------------14h16-----------------------|
|----------14h16h17-----------------------------|
|-14h16h17--------------------------------------|

|------------------------------------17b19-17b19r-14~-|
|--------------------------------17-------------------|
|-16b18==r--14~--16b18rp14-16b18----------------------|
|-----------------------------------------------------|
|-----------------------------------------------------|
|-----------------------------------------------------|

|---------17-16-14~--19b21~----19-16-14h16-14---------|
|------17-------------------------------------17~-----|
|--/16------------------------------------------------|
|-----------------------------------------------------|
|-----------------------------------------------------|
|-----------------------------------------------------|

|----14-----------------------------------------------|
|-17------------------15--14b14.5r--------------------|
|--------14~-----------------------14~--14-14h16-14~--|
|--------------14-16----------------------------------|
|-----------------------------------------------------|
|-----------------------------------------------------|

Legend:
b - Bend
r - Release
~ - Vibrato
/ - Slide from any position
Tap to rate this tab
 
# A B C D E F G H I J K L M N O P Q R S T U V W X Y Z