Song name
# A B C D E F G H I J K L M N O P Q R S T U V W X Y Z

James Kochalka - Wash Your Ass tab

-------------------------------------------------------------------------------
                  Wash Your Ass - James Kochalka Superstar
-------------------------------------------------------------------------------
       


Verse                                                              
       E     E   E   E   E   E   E   E     E  E  E  E   E   E   E   E     
E||-------------------------------------|-------------------------------||
B||-------------------------------------|-------------------------------||
G||*------------------------------------|------------------------------*||
D||*--10----10--10--13--13--10--10--10--|--8--8--8--9--10--10--10--10--*||
A||----8-----8---8--11--11---8---8---8--|--6--6--6--7---8---8---8---8---||
E||-------------------------------------|-------------------------------||


Chorus                                                           
  E      E  E  E   E   E   E   E     E  E  E  E   E   E   E   E    
----------------------------------|------------------------------||
----------------------------------|------------------------------||
----------------------------------|------------------------------||
--8------8--8--9--10--10--10--10--|--8--8--8--9--10--10--10--10--||
--6------6--6--7---8---8---8---8--|--6--6--6--7---8---8---8---8--||
----------------------------------|------------------------------||
Tap to rate this tab
 
# A B C D E F G H I J K L M N O P Q R S T U V W X Y Z