Song name
# A B C D E F G H I J K L M N O P Q R S T U V W X Y Z

James Kochalka - Smile chords

Highlighted       Show chord diagrams
D           A
Smile, I'll take your picture
G           A
Smile, I'll sing a song
D           A
Smile, I'll take your picture
G           A
I will sing all day long
D           A        G      A
Loo loo loo la la la doodle doo
D             G         A      D
That's what I sing when I love you

D        A
Smile, because I love you
G        A
Smile, because it's true
D        A
Smile, because I love you
G         A
I really, really do
D           A        G      A
Loo loo loo la la la doodle doo
D             G         A      D
That's what I sing when I love you


E |----------------|-----------------5--5--5----|--10-10----10-7--5--5-------|
B |----------------|--------------7-------------|----------------------------|
G |-----------2s---|--7--7-----7----------------|----------------------------|
D |----------------|----------------------------|----------------------------|
A |----------------|----------------------------|----------------------------|
E |----------------|----------------------------|----------------------------|


-----------------5--5--5----|--10-10----10-7--5--5s------|
--------------7-------------|----------------------------|
--7--7-----7----------------|----------------------------|
----------------------------|----------------------------|
----------------------------|----------------------------|
----------------------------|----------------------------|

Loo loo loo  La la la         Doodle   do
--10-10-10----5--5--5-------|--3--2-----5----------------||
----------------------------|----------------------------||
----------------------------|----------------------------||
----------------------------|----------------------------||
----------------------------|----------------------------||
----------------------------|----------------------------||

D             G         A      D
That's what I sing when I love you

D            A
Smile, ain't got no money
G            A
Smile, ain't got nothin' but
D        A
When you smile honey
G           A
That is everythin'
D           A        G      A
Loo loo loo la la la doodle doo
D             G         A      D
That's what I sing when I love you
Tap to rate this tab
# A B C D E F G H I J K L M N O P Q R S T U V W X Y Z