Song name
# A B C D E F G H I J K L M N O P Q R S T U V W X Y Z

James Marsters - Civilized Man tab

Help us improve GuitareTab! Take a short survey!
Artist: James Marsters
Song: Civilized Man
Album: Civilized Man
Released: May 2005

p = Pull-off
~ = Hold

e|-----------------------------------------------|
B|--------------2-2-2-2--------------------------|
G|--------------2-2-2-2--------------------------|
D|--------------2-2-2-2--------------------------|
A|--2-2-2-2-2---0-0-0-0-2--2-2-2-2-2--2-2-2-2-2--|
E|--0-0-0-0-3p----------3--0-0-0-0-3p-0-0-0-0-3p-|

e|-----------------------------------------------|
B|--------------2-2-2-2--------------------------|
G|--------------2-2-2-2--------------------------|
D|--------------2-2-2-2--------------------------|
A|--2-2-2-2-2---0-0-0-0-2--2-2-2-2-2--2-2-2-2-2--|
E|--0-0-0-0-3p----------3--0-0-0-0-3p-0-0-0-0-3p-|

e|-----------------------------------------------|
B|--------------2-2-2-2--------------------------|
G|--------------2-2-2-2--------------------------|
D|--------------2-2-2-2--------------------------|
A|--2-2-2-2-2---0-0-0-0-2--2-2-2-2-2--2-2-2-2-2--|
E|--0-0-0-0-3p----------3--0-0-0-0-3p-0-0-0-0-3p-|

e|-----------------------------------------------|
B|--------------2-2-2-2--------------------------|
G|--------------2-2-2-2--------------------------|
D|--------------2-2-2-2--------------------------|
A|--2-2-2-2-2---0-0-0-0-2--2-2-2-2-2--2-2-2-2-2--|
E|--0-0-0-0-3p----------3--0-0-0-0-3p-0-0-0-0-3p-|

e|----------------------------------------------|
B|----------------------------------------------|
G|----------------------------------------------|
D|--4-4-4-4-3-2~--4-4-4-4-3-2~--4-4-4-4-3-2~----|
A|--2-2-2-2-1-0~--2-2-2-2-1-0~--2-2-2-2-1-0~----|
E|----------------------------------------------|

e|-----------------------------------------------|
B|--------------2-2-2-2--------------------------|
G|--------------2-2-2-2--------------------------|
D|--------------2-2-2-2--------------------------|
A|--2-2-2-2-2---0-0-0-0-2--2-2-2-2-2--2-2-2-2-2--|
E|--0-0-0-0-3p----------3--0-0-0-0-3p-0-0-0-0-3p-|

e|-----------------------------------------------|
B|--------------2-2-2-2--------------------------|
G|--------------2-2-2-2--------------------------|
D|--------------2-2-2-2--------------------------|
A|--2-2-2-2-2---0-0-0-0-2--2-2-2-2-2--2-2-2-2-2--|
E|--0-0-0-0-3p----------3--0-0-0-0-3p-0-0-0-0-3p-|

e|-----------------------------------------------|
B|--------------2-2-2-2--------------------------|
G|--------------2-2-2-2--------------------------|
D|--------------2-2-2-2--------------------------|
A|--2-2-2-2-2---0-0-0-0-2--2-2-2-2-2--2-2-2-2-2--|
E|--0-0-0-0-3p----------3--0-0-0-0-3p-0-0-0-0-3p-|

e|----------------------------------------------|
B|----------------------------------------------|
G|----------------------------------------------|
D|--4-4-4-4-3-2~--4-4-4-4-3-2~--4-4-4-4-3-2~----|
A|--2-2-2-2-1-0~--2-2-2-2-1-0~--2-2-2-2-1-0~----|
E|----------------------------------------------|

e|-----------------------------------------------|
B|--------------2-2-2-2--------------------------|
G|--------------2-2-2-2--------------------------|
D|--------------2-2-2-2--------------------------|
A|--2-2-2-2-2---0-0-0-0-2--2-2-2-2-2--2-2-2-2-2--|
E|--0-0-0-0-3p----------3--0-0-0-0-3p-0-0-0-0-3p-|

e|-----------------------------------------------|
B|--------------2-2-2-2--------------------------|
G|--------------2-2-2-2--------------------------|
D|--------------2-2-2-2--------------------------|
A|--2-2-2-2-2---0-0-0-0-2--2-2-2-2-2--2-2-2-2-2--|
E|--0-0-0-0-3p----------3--0-0-0-0-3p-0-0-0-0-3p-|

e|-----------------------------------------------|
B|--------------2-2-2-2--------------------------|
G|--------------2-2-2-2--------------------------|
D|--------------2-2-2-2--------------------------|
A|--2-2-2-2-2---0-0-0-0-2--2-2-2-2-2--2-2-2-2-2--|
E|--0-0-0-0-3p----------3--0-0-0-0-3p-0-0-0-0-3p-|

e|-----------------------------------------------|
B|--------------2-2-2-2--------------------------|
G|--------------2-2-2-2--------------------------|
D|--------------2-2-2-2--------------------------|
A|--2-2-2-2-2---0-0-0-0-2--2-2-2-2-2--2-2-2-2-2--|
E|--0-0-0-0-3p----------3--0-0-0-0-3p-0-0-0-0-3p-|

e|-----------------------------------------------|
B|--------------2-2-2-2--------------------------|
G|--------------2-2-2-2--------------------------|
D|--------------2-2-2-2--------------------------|
A|--2-2-2-2-2---0-0-0-0-2--2-2-2-2-2--2-2-2-2-2--|
E|--0-0-0-0-3p----------3--0-0-0-0-3p-0-0-0-0-3p-|

e|----------------------------------------------|
B|----------------------------------------------|
G|----------------------------------------------|
D|--4-4-4-4-3-2~--4-4-4-4-3-2~--4-4-4-4-3-2~----|
A|--2-2-2-2-1-0~--2-2-2-2-1-0~--2-2-2-2-1-0~----|
E|----------------------------------------------|

e|-----------------------------------------------|
B|--------------2-2-2-2--------------------------|
G|--------------2-2-2-2--------------------------|
D|--------------2-2-2-2--------------------------|
A|--2-2-2-2-2---0-0-0-0-2--2-2-2-2-2--2-2-2-2-2--|
E|--0-0-0-0-3p----------3--0-0-0-0-3p-0-0-0-0-3p-|

e|-----------------------------------------------|
B|--------------2-2-2-2--------------------------|
G|--------------2-2-2-2--------------------------|
D|--------------2-2-2-2--------------------------|
A|--2-2-2-2-2---0-0-0-0-2--2-2-2-2-2--2-2-2-2-2--|
E|--0-0-0-0-3p----------3--0-0-0-0-3p-0-0-0-0-3p-|

e|-----------------------------------------------|
B|--------------2-2-2-2--------------------------|
G|--------------2-2-2-2--------------------------|
D|--------------2-2-2-2--------------------------|
A|--2-2-2-2-2---0-0-0-0-2--2-2-2-2-2--2-2-2-2-2--|
E|--0-0-0-0-3p----------3--0-0-0-0-3p-0-0-0-0-3p-|

e|-----------------------------------------------|
B|--------------2-2-2-2--------------------------|
G|--------------2-2-2-2--------------------------|
D|--------------2-2-2-2--------------------------|
A|--2-2-2-2-2---0-0-0-0-2--2-2-2-2-2--2-2-2-2-2--|
E|--0-0-0-0-3p----------3--0-0-0-0-3p-0-0-0-0-3p-|

e|-----------------------------------------------|
B|--------------2-2-2-2--------------------------|
G|--------------2-2-2-2--------------------------|
D|--------------2-2-2-2--------------------------|
A|--2-2-2-2-2---0-0-0-0-2--2-2-2-2-2--2-2-2-2-2--|
E|--0-0-0-0-3p----------3--0-0-0-0-3p-0-0-0-0-3p-|
Related for Civilized Man tab