Song name
# A B C D E F G H I J K L M N O P Q R S T U V W X Y Z

James Marsters - For What I Need tab

Artist: James Marsters
Song: For What I Need
Album: Civilized Man
Released: May 2005

James hits each pair of notes once in the chorus, but I prefer to hit them twice. But
that's only personal preference. I tabbed it the way James plays the song.

Verse:
e|-------------0--------------|
B|-------------0--------------|
G|----------------------------|
D|-2--2-----2-----2--2--2--2--|
A|-2--2--2--2-----2--2--2--2--|
E|-0--0--3--0-----0--0--3--0--|

Chorus:
e|-------------|
B|-------------|
G|-------------|
D|-2--4--5--4--|
A|-0--0--0--0--|
E|-------------|

Verse:  6x
Chorus: 2x
Verse:  4x
Chorus: 2x
Verse:  4x
Chorus: 2x
Verse:  4x
Chorus: 2x
Verse:  1x
Chorus: 2x
Verse:  4x
Chorus: 2x
Verse:  4x
Chorus: 2x
Verse:  Play until end
Tap to rate this tab
# A B C D E F G H I J K L M N O P Q R S T U V W X Y Z