Song name
# A B C D E F G H I J K L M N O P Q R S T U V W X Y Z

James Mcmurtry - We Cant Make It Here Anymore tab

-------------------------------------------------------------------------------
			     We Can't Make It Here Anymore - James Mcmurtry
-------------------------------------------------------------------------------
Tabbed by: Keagan
Email: Dejavoux66@hotmail.com

Tuning: Open D,  (low to high: DADGBD) Capo @ 5th


Intro
D|---------0---0-0---0---0--------------0---0-0------------------------------|
B|---------3---3-3---1---0--------------3---1p0--0--0------------------------|
G|---------2---2-2---0---0--------------2--------2--0------------------------|
D|---------0---0-0---0---0--------------0------------------------------------|
A|-------------------3---2---------------------------------------------------|
D|-x0-x0-----------------0------x0-x0x0--------------------------------------|


Verse:

There's a vietnam vet with a cardboard sign sittin' there by the left turn line
     D|------------0---------0--------------0--------------------------------|
     B|------------3---------3--------------3--------------------------------|
     G|------------2---------0--------------0-------------------------------0|
     D|------------0---------2--------------0-------------------------------0|
     A|----------------------3--------------2---------------------------2h3--|
     D|-----x0 x0 -----------------------------------------------x0-x0-------|

   Flag on his wheelchair is flappin' in the breeze, one leg missing and both hands free
D|-------------0-------------0-----------------------0-----------------------|
B|-------------3-------------3-----------------------3-------3---------------|
G|-------------2-------------0-----------------------0-------0---------------|
D|-------------0-------------2-----------------------0-------0---------------|
A|---------------------------3-----------------------2-------0---------------|
D|-x0--x0----------------------------------------------------3-----------p0--|



These are the basic 2 parts that make up the whole song, there are many verses and 
variations on the intro part that comes between each verse but I will leave that for a better 
guitarist and tabber.

| /   slide up
| \   slide down
| h   hammer-on
| p   pull-off
| ~   vibrato
| +   harmonic
| x   Mute note
| b   Bend
| pb  Pre-bend
| br  Bend release
| pbr Pre-bend release
| brb Bend release bend

************************************
Tap to rate this tab
# A B C D E F G H I J K L M N O P Q R S T U V W X Y Z