Song name
# A B C D E F G H I J K L M N O P Q R S T U V W X Y Z

James Morrison - Letter tab

Hey Guys this is my first tab i've posted but i'm pretty sure its right. I wouldnt want 
to ruin such an awesome song, by such an awesome artist.

Tuning, open E (no Gender) EBEEBE

Played on a lap steel/weisenborn

Intro:
E------|
B------|
E-3--2-|
E------|
B------|
E-3--2-|

Verse 1:

E| -----------------------12----------------------- |
B| -0--x--8--x--10--x--12-12-12--x--10--x--8--x--0- |
E|o-0--x--8--x--10--x--12----12--x--10--x--8--x--0-o| x3
E|o------------------------------------------------o|
B| ------------------------------------------------ |
E| -0--x--8--x--10--x--12----12--x--10--x--8--x--0- |

E-----------------------12------|
B-0--x--8--x--10--x--12-12-12/--|
E-0--x--8--x--10--x--12----12/--|
E-------------------------------|
B-------------------------------|
E-0--x--8--x--10--x--12----12/--|

Chorus:

E--3/2--| 0--3--5--0--0--5--3/2/3/2p0h3/2/3-- |
B--3/2--| 0--3--5--0--0--5--3/2/3/2p0h3/2/3-- |
E--3/2--|o0--3--5--0--0--5--3/2/3/2p0h3/2/3--o| x2
E-------|o-----------------------------------o|
B-------| ----------------------------------- |
E--3/2--| 0--3--5--0--0--5--3/2/3/2p0h3/2/3-- |

E--0--8--10--12--12--10--8-----------|
B--0--8--10--12--12--10--8-----------|
E--0--8--10--12--12--10--8-----------|
E---------------------------/5-3p0-3-|
B---------------------------------3--|
E--0--8--10--12--12--10--8-----------|

E--0--8--10--12--------12///////////--|
B--0--8--10--12--------12///////////--|
E--0--8--10--12-10/12--12///////////--|
E-------------------------------------|
B-------------------------------------|
E--0--8--10--12-0----0-12/10/8/7/5/3/-|

Bridge/Solo:

E--3/2-- | 0--3--5-3/2-0-3-0-3/5-5-5-5--3-3/2-3-3/2-0- |
B--3/2-- | 0--3--5-3/2-0-3-0-3/5-5-5-5--3-3/2-3-3/2-0- |
E--3/2-- |o0--3--5-3/2-0-3-0-3/5-5-5-5--3-3/2-3-3/2-0-o| x2
E------- |o-------------------------------------------o|
B------- | ------------------------------------------- |
E--3/2-- | 0--3--5-3/2-0-3-0-3/5-5-5-5--3-3/2-3-3/2-0- |

E--0--8--10--12--12--10--8-----------|
B--0--8--10--12--12--10--8-----------|
E--0--8--10--12--12--10--8-----------|
E---------------------------/5-3p0-3-|
B---------------------------------3--|
E--0--8--10--12--12--10--8-----------|

E-0--3--5-3/2-0-3-0-3/5-5-5-5--3-3/2-3-3/2-0---12///|
B-0--3--5-3/2-0-3-0-3/5-5-5-5--3-3/2-3-3/2-0---12///|
E-0--3--5-3/2-0-3-0-3/5-5-5-5--3-3/2-3-3/2-0---12///|
E---------------------------------------------------|
B---------------------------------------------------|
E-0--3--5-3/2-0-3-0-3/5-5-5-5--3-3/2-3-3/2-0---12///|


Song Order:

Intro:
Verse:
Chorus:
Verse:
Bridge/Solo:
Verse:

Thats the basic Gist of it.
Hope it works out for you guys
Any feedback to jonaseymour69@hotmail.com
Tap to rate this tab
# A B C D E F G H I J K L M N O P Q R S T U V W X Y Z