Song name
# A B C D E F G H I J K L M N O P Q R S T U V W X Y Z

James Morrison - Person I Should Have Been Live tab

Tabbed By Steve.R
You can listen to the Intro here to get the rythmn :
http://www.youtube.com/watch?v=utctkFb9ifw
______________________________________________________________________________
Capo 2nd Fret.

         Em               
E|-------------0----0-----0-----------|
B|----------------0----0-----0--------|
G|------------------------------------|
D|--------2---------------------------|
A|-----2------------------------------|
E|------------------------------------|    x4

     Am            F#m      Am
E|------0----|-----2------|-----0h2--3--2--0---0--|
B|--------1--|-------2----|---1--------------1----|
G|----2------|---2--------|-2---------------------|
D|--2--------|-4----------|-----------------------|
A|-----------|------------|-----------------------|
E|-----------|------------|-----------------------| x2

   Am             F#m       Am
E|------0----|------2----|-------0h2--3--3\5--3--2h3p0--|
B|----1---1--|----2---2--|----1-------------------------|
G|--2--------|--2--------|--2---------------------------|
D|-----------|-----------|------------------------------|
A|-----------|-----------|------------------------------|
E|-----------|-----------|------------------------------|

    Am          F#m
E|------0----|------2----|
B|----1---1--|----2---2--|
G|--2--------|--2--------|
D|-----------|-----------|
A|-----------|-----------|
E|-----------|-----------|  x2

    Em                 
E|--0--------------------0--|
B|----0---0--------------0--|
G|------0---0---0--0h2---0--|
D|------------2----------2--|
A|-----------------------2--|
E|-----------------------0--|
Tap to rate this tab
# A B C D E F G H I J K L M N O P Q R S T U V W X Y Z