Song name
# A B C D E F G H I J K L M N O P Q R S T U V W X Y Z

James Morrison - Wonderful World tab

this is my first ever tab so plz correct me if im worng but i dont it by ear and 
its sounds just about right.

its tuned in standard tuning and doesnt require a capo.

carry this tune throughout the song.

|-------------------------|
|-------------------------|
|--------------9----------|X4
|------------0------------|
|----------------10-------|
|----------8--------------|

|-------------------------|
|-------------------------|
|--------------9----------|X4
|------------0------------|
|----------------10-------|
|----------0--------------|

|-------------------------|
|-------------------------|
|--------------8----------|X8
|------------0------------|
|----------------9--------|
|----------7--------------|
Tap to rate this tab
# A B C D E F G H I J K L M N O P Q R S T U V W X Y Z