Song name
# A B C D E F G H I J K L M N O P Q R S T U V W X Y Z

James Morrison - Person I Should Have Been tab

-----------------------------------------------------------------------------
      Person I should have been (Album version) - James Morrison
-----------------------------------------------------------------------------
Tabbed by: Sahid L.
Email: who2ookmyshu@yahoo.com

This is my very first tab, so hopefully you can forgive me if there are any errors. I 
really liked the intro to this song, and I think I got it pretty close by ear.  It's 
pretty much a variation of Em, Am, and Bm chords... 3 chords he uses in a lot of his other songs.

Tuning: Standard, Capo on 2nd Fret, strum down and finger pick up


************************************

| /   slide up
| \   slide down
| h   hammer-on
| p   pull-off


************************************

      Am        Bm      Em
e|----------------------0-----|----0h2-0-3-2-0---0h2----0-0-----------------|
B|----1----------4------0-----|----------------4-------1---1-1--------------|
G|---2----------2-------0-----|-----------------------2-----2---------------|
D|--2----------4--------2-----|----------------------2----------------------|
A|------------2---------2-----|---------------------------------------------|
E|----------------------0-----|---------------------------------------------|

e|----------------------0----------0h2-0-3-2-0---0h2-----0-0----------------|
B|-----4-4-------------0-----------------------4--------1---1-1-------------|
G|----2---2-----------0--------------------------------2-----2--------------|
D|---4-----4---------2--------------------------------2---------------------|
A|--2---------------2-------------------------------------------------------|
E|-----------------0--------------------------------------------------------|

e|----------------------0-----0h2-0-3-3/5\3-2h3p2p0-----0-0-----------------|
B|-----4-4-------------0-------------------------------1---1-1--------------|
G|----2---2-----------0-------------------------------2-----2---------------|
D|---4-----4---------2-------------------------------2----------------------|
A|--2---------------2-------------------------------0-----------------------|
E|-----------------0--------------------------------------------------------|

e|--------------------------------------------------0-----------------------|
B|----4-4-----------1---1-----4-4--4-----4----------0-----------------------|
G|---2---2-2-------0--0-------2--2--2---2-2---------0-----------------------|
D|--4-----4-------2----2------4---4--4-4---4--------2-----------------------|
A|-2-------------3------------2-------2-----2-------2-----------------------|
E|------------------------------------0-------------0-----------------------|
Tap to rate this tab
# A B C D E F G H I J K L M N O P Q R S T U V W X Y Z