Song name
# A B C D E F G H I J K L M N O P Q R S T U V W X Y Z

James Morrison - Wonderful World chords

Highlighted       Show chord diagrams
Artist : James Morrison
Song : Wonderful World
Transcribed by Mansouf Mohammed

Capo 1st Fret

Verse 1:

                                           A#
E|----------5------------------------------3--------------------------------|
B|----------5------------------------------3--------------------------------|
G|----------5------------------------------4--------------------------------|
D|----------7------------------------------5--------------------------------|
A|----------7------------------------------5--------------------------------|
E|----------5------------------------------3--------------------------------|
              I've been down so low people look at me and they know

            F                  C          F        C
E|----------1------------------0----------1--------0---------|
B|----------1------------------1----------1--------1---------|
G|----------2------------------0----------2--------0---------|
D|----------3------------------2----------3--------2---------|
A|----------3------------------3----------3--------3---------|
E|----------1------------------x----------1--------x---------|
   they can tell something is wrong, like I dont belong, 

                                                    A#
E|----------5---------------------------------------3-----------------------|
B|----------5---------------------------------------3-----------------------|
G|----------5---------------------------------------4-----------------------|
D|----------7---------------------------------------5-----------------------|
A|----------7---------------------------------------5-----------------------|
E|----------5---------------------------------------3-----------------------|
  well         staring through a window standing outside there just to happy to care ,

            F                    C           F            C
E|----------1--------------------0-----------1------------0---|
B|----------1--------------------1-----------1------------1---|
G|----------2--------------------0-----------2------------0---|
D|----------3--------------------2-----------3------------2---|
A|----------3--------------------3-----------3------------3---|
E|----------1--------------------x-----------1------------x---|
     tonight, I want to be like them, but I'll mess it up again 
      A#
E|----3------------------------------------------------------------|
B|----3------------------------------------------------------------|
G|----4------------------------------------------------------------|
D|----5------------------------------------------------------------|
A|----5------------------------------------------------------------|
E|----3------------------------------------------------------------|
        I tripped on my way in and got kicked outside everybody saw

(Chorus)

       F                                C                      G
E|-----1--------------------------------0----------------------3--------|
B|-----1--------------------------------1----------------------0--------|
G|-----2--------------------------------0----------------------0--------|
D|-----3--------------------------------2----------------------0--------|
A|-----3--------------------------------3----------------------2--------|
E|-----1--------------------------------x----------------------3--------|
      And I know that itís a wonderful world but canít feel it right now
 
       F                        C                       G
E|-----1------------------------0-----------------------3------|
B|-----1------------------------1-----------------------0------|
G|-----2------------------------0-----------------------0------|
D|-----3------------------------2-----------------------0------|
A|-----3------------------------3-----------------------2------|
E|-----1------------------------x-----------------------3------|
Well I thought that I was doing well but I just want to cry now

        
E|------5--------------------------5------------5------6-------7----|
B|------6--------------------------5------------6------7-------8----|
G|------7--------------------------7------------7------8-------9----|
D|------7--------------------------7------------7------8-------9----|
A|------5--------------------------5------------5------6-------7----|
E|------5--------------------------5------------5------6-------7----|
Well I know that itís a wonderful world from the sky down to the sea

                           A#         F              C   E7
E|------------5------------3----------1--------------0---0-------------|
B|------------5------------3----------1--------------1---0-------------|
G|------------5------------4----------2--------------0---1-------------|
D|------------7------------5----------3--------------2---0-------------|
A|------------7------------5----------3--------------3---2-------------|
E|------------5------------3----------1--------------x---0-------------|
  But I can only see it when youíre here, here with me, mmhÖ

(Verse 2)

                                                   A#
E|----------5--------------------------------------3---------------------|
B|----------5--------------------------------------3---------------------|
G|----------5--------------------------------------4---------------------|
D|----------7--------------------------------------5---------------------|
A|----------7--------------------------------------5---------------------|
E|----------5--------------------------------------3---------------------|
              Sometimes I feel so full of love it just comes spilling out

        F            C            F             C
E|------1------------0------------1-------------0-|
B|------1------------1------------1-------------1-|
G|------2------------0------------2-------------0-|
D|------3------------2------------3-------------2-|
A|------3------------3------------3-------------3-|
E|------1------------x------------1-------------x-|
Itís uncomfortable to see I give it away so easily

                                                   A#
E|----------5--------------------------------------3---------------------|
B|----------5--------------------------------------3---------------------|
G|----------5--------------------------------------4---------------------|
D|----------7--------------------------------------5---------------------|
A|----------7--------------------------------------5---------------------|
E|----------5--------------------------------------3---------------------|
              But if I had someone I would do anything Iíd never, never, ever let you feel alone

        F      C            F               C
E|------1------0------------1---------------0---|
B|------1------1------------1---------------1---|
G|------2------0------------2---------------0---|
D|------3------2------------3---------------2---|
A|------3------3------------3---------------3---|
E|------1------x------------1---------------x---|
          I wonít, I wonít leave you on your own

      A#
E|----3--------------------------------------------------------------|
B|----3--------------------------------------------------------------|
G|----4--------------------------------------------------------------|
D|----5--------------------------------------------------------------|
A|----5--------------------------------------------------------------|
E|----3--------------------------------------------------------------|
       But who am I to dream? Dreams are for fools, they let you down

(Chorus)

       F                                C                      G
E|-----1--------------------------------0----------------------3--------|
B|-----1--------------------------------1----------------------0--------|
G|-----2--------------------------------0----------------------0--------|
D|-----3--------------------------------2----------------------0--------|
A|-----3--------------------------------3----------------------2--------|
E|-----1--------------------------------x----------------------3--------|
      And I know that itís a wonderful world but canít feel it right now

       F                        C                       G
E|-----1------------------------0-----------------------3------|
B|-----1------------------------1-----------------------0------|
G|-----2------------------------0-----------------------0------|
D|-----3------------------------2-----------------------0------|
A|-----3------------------------3-----------------------2------|
E|-----1------------------------x-----------------------3------|
Well I thought that I was doing well but I just want to cry now

E|------5--------------------------5------------5------6-------7----|
B|------6--------------------------5------------6------7-------8----|
G|------7--------------------------7------------7------8-------9----|
D|------7--------------------------7------------7------8-------9----|
A|------5--------------------------5------------5------6-------7----|
E|------5--------------------------5------------5------6-------7----|
Well I know that itís a wonderful world from the sky down to the sea

                           A#         F              C   E7
E|------------5------------3----------1--------------0---0-------------|
B|------------5------------3----------1--------------1---0-------------|
G|------------5------------4----------2--------------0---1-------------|
D|------------7------------5----------3--------------2---0-------------|
A|------------7------------5----------3--------------3---2-------------|
E|------------5------------3----------1--------------x---0-------------|
  But I can only see it when youíre here, here with me, mmhÖ

(Verse 3)

  Ab      F                 C         Ab                    F              C
E|4-------1-----------------0---------4---------------6-----1--------------0|
B|4-------1-----------------1---------4---------------6-----1--------------1|
G|5-------2-----------------0---------5---------------7-----2--------------0|
D|6-------3-----------------2---------6---------------8-----3--------------2|
A|6-------3-----------------3---------6---------------8-----3--------------3|
E|4-------1-----------------x---------4---------------6-----1--------------x|
   And I wish that I could make it better, Iíd give anything for you to call me
 
                          Ab      F                Dm7       G
E|------------------------4-------1-----------------1--------3----------|
B|------------------------4-------1-----------------1--------0----------|
G|------------------------5-------2-----------------2--------0----------|
D|------------------------6-------3-----------------0--------0----------|
A|------------------------6-------3-----------------x--------2----------|
E|------------------------4-------1-----------------x--------3----------|
        Or maybe just a little letter, Oh we could start again

(Chorus)

       F                                C                      G
E|-----1--------------------------------0----------------------3--------|
B|-----1--------------------------------1----------------------0--------|
G|-----2--------------------------------0----------------------0--------|
D|-----3--------------------------------2----------------------0--------|
A|-----3--------------------------------3----------------------2--------|
E|-----1--------------------------------x----------------------3--------|
      And I know that itís a wonderful world but canít feel it right now

       F                        C                       G
E|-----1------------------------0-----------------------3------|
B|-----1------------------------1-----------------------0------|
G|-----2------------------------0-----------------------0------|
D|-----3------------------------2-----------------------0------|
A|-----3------------------------3-----------------------2------|
E|-----1------------------------x-----------------------3------|
Well I thought that I was doing well but I just want to cry now


E|------5--------------------------5------------5------6-------7----|
B|------6--------------------------5------------6------7-------8----|
G|------7--------------------------7------------7------8-------9----|
D|------7--------------------------7------------7------8-------9----|
A|------5--------------------------5------------5------6-------7----|
E|------5--------------------------5------------5------6-------7----|
Well I know that itís a wonderful world from the sky down to the sea

                           A#         F              C   E7
E|------------5------------3----------1--------------0---0-------------|
B|------------5------------3----------1--------------1---0-------------|
G|------------5------------4----------2--------------0---1-------------|
D|------------7------------5----------3--------------2---0-------------|
A|------------7------------5----------3--------------3---2-------------|
E|------------5------------3----------1--------------x---0-------------|
  But I can only see it when youíre here, here with me, OohÖ

(Chorus)

       F                                C                      G
E|-----1--------------------------------0----------------------3--------|
B|-----1--------------------------------1----------------------0--------|
G|-----2--------------------------------0----------------------0--------|
D|-----3--------------------------------2----------------------0--------|
A|-----3--------------------------------3----------------------2--------|
E|-----1--------------------------------x----------------------3--------|
      And I know that itís a wonderful world but canít feel it right now

       F                        C                       G
E|-----1------------------------0-----------------------3-----------|
B|-----1------------------------1-----------------------0-----------|
G|-----2------------------------0-----------------------0-----------|
D|-----3------------------------2-----------------------0-----------|
A|-----3------------------------3-----------------------2-----------|
E|-----1------------------------x-----------------------3-----------|
I got all the right clothes to wear I just want to cry now, cry now

E|------5--------------------------5------------5------6-------7----|
B|------6--------------------------5------------6------7-------8----|
G|------7--------------------------7------------7------8-------9----|
D|------7--------------------------7------------7------8-------9----|
A|------5--------------------------5------------5------6-------7----|
E|------5--------------------------5------------5------6-------7----|
Well I know that itís a wonderful world from the sky down to the sea

                           A#         F              C   E7
E|------------5------------3----------1--------------0---0-------------|
B|------------5------------3----------1--------------1---0-------------|
G|------------5------------4----------2--------------0---1-------------|
D|------------7------------5----------3--------------2---0-------------|
A|------------7------------5----------3--------------3---2-------------|
E|------------5------------3----------1--------------x---0-------------|
  But I can only see it when youíre here, here with me, mmhÖ
       F                C         G      F#                    C       
E|-----1----------------0---------3------2---------------------0---|
B|-----1----------------1---------0------2---------------------1---|
G|-----2----------------0---------0------3---------------------0---|
D|-----3----------------2---------0------4---------------------2---|
A|-----3----------------3---------2------4---------------------3---|
E|-----1----------------x---------3------2---------------------x---|
And I know that itís a wonderful world,    When you're with me
Tap to rate this tab
 
# A B C D E F G H I J K L M N O P Q R S T U V W X Y Z