Song name
# A B C D E F G H I J K L M N O P Q R S T U V W X Y Z

James Pierpont - Jingle Bells tab

Jinge bells :)
Merry Christmas everyone

----------------------------------------------------------------------------|
--------0----------------------0-------------------------------1--0---------|
-----------2--0-------------------2--0-------------------------------2------|
-0--0-------------0-----0--0----------------2-----------2----2-----------4--|
----------------------------------------------------------------------------|
----------------------------------------------------------------------------|

----------------------------------------------------------------------------|
-3-3--3--1------0-------------0---------------------0-----------------------|
------------2------0------------2--0-------------------2---0----------------|
----------------------0---0-----------0-----0---0--------------2------------|
----------------------------------------------------------------------------|
----------------------------------------------------------------------------|

------------------------------------0---------------------------------------|
----------1--0--------3--3--3--3-------3--1---------------0-0-0----0-0-0----|
-----------------2----------------------------2--0--------------------------|
--2--2----------------------------------------------------------------------|
----------------------------------------------------------------------------|
----------------------------------------------------------------------------|

----------------------------------------------------------------------------|
--0--3--------0-----1--1--1---1--1--0--0--0--0--0---------0-------3---------|
--------0--2---------------------------------------2--2-------2-------------|
----------------------------------------------------------------------------|
----------------------------------------------------------------------------|
----------------------------------------------------------------------------|

----------------------------------------------------------------------------|
--0-0-0--0-0-0--0-3-------0----1-1-1-1-1-0-0-0-0--3--3--1-------------------|
---------------------0-2------------------------------------2--0------------|
----------------------------------------------------------------------------|
----------------------------------------------------------------------------|
----------------------------------------------------------------------------|
Tap to rate this tab
# A B C D E F G H I J K L M N O P Q R S T U V W X Y Z