Song name
# A B C D E F G H I J K L M N O P Q R S T U V W X Y Z

James Taylor - Mexico tab

Mexico
Standard Tuning
Capo 2 Fret
by: greyson matthews

for verse and chorus and pretty much the whole song, listen to the song for right timing 
strumming pattern.

Mexico Tab


--2----0---2-----------0-------0-------3-2---------0-0---------------------|
----3----3---------3---------2---------------3---0---------3-3-----0-------|
-----2-------2-------------2--------2------0-------------0------------0-0--|
--0--------0-----4---4-------------------------4-----------------0-------0-|
-------0-------2-------0-0------0-2----------2-------2-3-----2-------2-3---|
--------------------------------------0------------------------3-----------|

--2----0---2-----------0-------0-------3-2---------0-0-------------3-------|
----3----3---------3---------2---------------3---0---------3-3-------3-----|
-----2-------2-------------2--------2------0-------------0-------0-----0-0-|
--0--------0-----4---4-------------------------4---------------------------|
-------0-------2-------0-0------0-2----------2-------2-3-----2-------------|
--------------------------------------0------------------------3-----------|

verse:

-3-    -2-    -0-    -3-|
-3-    -3-    -2-    -3-|
-4-    -2-    -2-    -4-|
-5-    -0-    -2-    -5-|
-x-    -x-    -0-    -x-|
-x-    -x-    -x-    -x-|

OH     Mex -  ico...

-0-    -x-    -0-|
-0-    -4-    -2-|
-1-    -4-    -2-|
-0-    -4-    -2-|
-0-    -2-    -0-|
-x-    -x-    -x-|

Chorus:

-4-    -x-    -0-    -0-|
-5-    -4-    -2-    -0-|
-6-    -4-    -2-    -1-|  1x
-6-    -4-    -2-    -2-|
-4-    -2-    -0-    -2-|
-x-    -x-    -x-    -0-|

-4-    -x-    -0-    -4-|
-5-    -4-    -2-    -5-|
-6-    -4-    -2-    -6-|  1x
-6-    -4-    -2-    -6-|
-4-    -2-    -0-    -4-|
-x-    -x-    -x-    -x-|

Make everything alright...

-3-    -0-    -0-|
-3-    -2-    -0-|
-0-    -2-    -1-|
-2-    -2-    -2-|
-2-    -0-    -2-|
-x-    -x-    -0-|

Riff 1

-----------------0-|
------3-3-3p2--2---|
------2-2-2p2------|   4x
-2\4------4p2------|
-------------------|
-------------------|
Tap to rate this tab
# A B C D E F G H I J K L M N O P Q R S T U V W X Y Z