Song name
# A B C D E F G H I J K L M N O P Q R S T U V W X Y Z

James Taylor - Machine Gun Kelly tab

JAMES TAYLOR - MACHINE GUN KELLY

Standard tuning

Chords used:

 D G C C/G  A

-2-3-0--0---0--|
-3-0-1--1---2--|
-2-0-0--0---2--|
-0-0-2--2---2--|
---2-3--3---0--|
---3-X--3---X--|

Basically a D with pulloffs and hammerons followed by a walkdown on the basstring. Just 
listen for it, simple.

     D          C1  B   C1  D        C1  B   C1

e-------2h3p2------------------2p0------------------|
B------3-----3----3---3--3----3---3----3---3--3-----|
G-----2-------2--0---0---0---2-----2--0---0---0-----|
D----0----------------------0-----------------------|
A---------------3---2---3------------3---2---3------|
E---------------------------------------------------|


     D                          C1    B C1
I'll tell you 'bout Machine Gun Kelly
   D                     C1   B C1
He rode along the outlaw trail
D                       C1     B   C1
Machine Gun Kelly was a simple man but the
D                       C1    B    C1
woman was just hard as hell, Watch out
G            C             G       D    C1 B C1
Machine Gun, don't let her put you down
A                                  C/G    G
Don't let a woman put you six feet in the ground
D           C1 B C1
Machine gun
Tap to rate this tab
# A B C D E F G H I J K L M N O P Q R S T U V W X Y Z