Song name
# A B C D E F G H I J K L M N O P Q R S T U V W X Y Z

James Vincent Mcmorrow - We Are Ghosts chords

Highlighted       Show chord diagrams
(We are) Ghost 
James Vincent Mcmorrow
Enjoy :) -mzoeli

If you're planing to do the plucking, this is the one for the whole song except for chorus
   Bm      Am      | Bm        Am
 (Starts with this)|(cont with this)
e|---------|x-x----|----------|x-x----|
B|-----x---|----x--|x-----x---|----x--|
G|--x-x-x-x|-x-x---|---x-x-x-x|-x-x---|
D|-x-x---x-|-------|--x-x---x-|-------|
A|---------|-------|----------|-------|
E|---------|-------|----------|-------|
  The mooooooon holds the light
  And the moon's this spinning globe... .


    Bm             A
The moon holds the light
        F#m                   
And the moon's this spinning globe
         E
Shedding light upon the road
    Bm         A
The bird won't fly
      F#m                           E
And a bird without its wings is a low and tragic thing

       Bm
We are ghosts
       F#m     
We are ghosts amongst these hills
         E
From the trees of velvet green
       C#m
To the ground beneath our feet
       Bm
We are ghosts
       F#m
We are ghosts amongst these hills
         E
Pressing out along the shore
         C#m
Pressing out along the shore

e|---10-9-7-5-4-5-2----4-5-4-0-2---4-5-7-2-4-5-4

[OR]

e|--10-9-7-------------------------------------------
B|---------10-9-10-7--- 9-10-9------9-10-12----9-10-9
G|----------------------------9-11----------11-------
D|---------------------------------------------------
A|---------------------------------------------------
E|---------------------------------------------------

Bm A F#m E
The mountain song
Matters not the thoughts of thirds
Matters only to be heard
And though I'm gone
I will come again in Spring
When the harvest can begin

Bm F#m E C#m
We are ghosts
We are ghosts amongst these hills
From the trees of velvet green
To the ground beneath our feet
We are ghosts
We are ghosts amongst these hills
Pressing out along the shore
Pressing out along the shore

Bm F#m A x6
Tap to rate this tab
# A B C D E F G H I J K L M N O P Q R S T U V W X Y Z