Song name
# A B C D E F G H I J K L M N O P Q R S T U V W X Y Z

James Vincent Mcmorrow - Post Tropical chords

Highlighted       Show chord diagrams
Post Tropical - James Vincent McMorrow

Capo 3

Chord diagrams are as below, unless stated otherwise in brackets.
Am      -       x02210
G       -       320033
C       -       x32010
F       -       133211
Dm      -       xx0231
Asus4   -       x02240



Intro: Am G(3x000) Am G(3x000)

Am
River comes
G         Am
Tepid and cold
G             Am       G(3xx20x)   F(1x32xx)
Crawling like snakes   to the      fold
Am
Chase it by
G           Am
Back to the ground
G            Am    G(3xx20x)  F
Beating your fists to the     sound

           C(x32013)
No one can look
        G           Am      Am/F
How can anyone move on, now, travel on
         Dm    G   Am      Asus4  F
Terrible home, go, giving it all    away
G(3x000x)        F(13320x)
Who will run and who will stay

Am
All the help 
G         Am
Gathering men
G           Am  G(3xx20x)      F(1x32xx) 
Learn to be fly through what's left
Am
All they sell
G         Am
Got it in me
G              Am   G(3xx20x)  F
Throwing whats left in the     stream

           C(x32013)
No one can look
        G           Am      Am/F
How can anyone move on, now, travel on
         Dm    G   Am      Asus4  F
Terrible home, go, giving it all    away
G(3x000x)        F(13320x)
Who will run and who will stay
G(3x000x)        F(13320x)
First to leave, last who came
G(3x000x)        F(13320x)
Who will run and who will stay

Intro to the cool part:
(capo not considered here)
e|--------------------------------------------------------------------------|
B|-13-11-9-11-8-11-8-6-----13-11-9-11-8-s9-8--------------------------------|
G|--------------------------------------------------------------------------|
D|-10-8--6-8--5-8--5-3-----10-8--6-8--5-s6-5--------------------------------|
A|--------------------------------------------------------------------------|
E|--------------------------------------------------------------------------|

cool part:

e|-----8----8h10-8----------| 2x
B|-8h11--11--------11-------| 

e|-----6---6h8-6------------| 4x
B|-6h8---8-------8----------| 

e|-------11----11h13-11-----| 1x
B|-11h13----13----------13--| 

e|-------11----15-18-13-----| 1x
B|-11h13----13--------------|                

This goes on while these chords are played:

C(x32013)
la la la, la la la la
G(320013)
la la la, la la la la
Am(x02213)
la la la, la la la la
F(13x213)
la la la, la la la la

Repeat till end.
Tap to rate this tab
# A B C D E F G H I J K L M N O P Q R S T U V W X Y Z