Song name
# A B C D E F G H I J K L M N O P Q R S T U V W X Y Z

James Yuill - This Sweet Love tab

Directly from Yuill's facebook page:

https://www.facebook.com/note.php?note_id=392708490234

tuning (EADEBE) capo 3rd fret

verses

----------------------------------------------|
---1-----1------1-------1----3----------------|
---3-----0------0-------0----0----------------|
---2-----2------2-------0----0----------------|
-0-----0--------0-----------------------------|
-----------------3-------1----1---------------|

Be, the greatest man in history
The greatest man that you can be
Just be

Walk, walk out on the beach with me
Walk out in the sea with me
Just be



chorus

------------------1---------------1-------------------------------------|
----1-----1-----1--------1------1------0-------1------1-----------------|
----3-----3-----3--------3------3------3-------0------3-----------------|
----2-----2-----2--------2------2------2-------2------2-----------------|
----3-----3-----3--------3------3------3-------0------3-----------------|
-----------0-----1---------------1------0-------------------------------|

All of the time you show me your love
Sweet love
And oh, how you know
This sweet love


(Repeat Verse)

Nights, cold nights wrapped in ecstasy
Those times still perplexing be
They just be

(Repeat Chorus)
All of the time you show me your love
Sweet love
And oh how you know
This sweet love



middle 8


------------------------------------------------------------------|
---1-----1--------1-----1--------1------1----3--------------------|
---3-----0^3-----3-----0^3----3------0----0-----------------------|
------------------------------------------------------------------|
-0-----0----------------------------------------------------------|
-----------------0-----0----------3------1----1-------------------|
Tap to rate this tab
# A B C D E F G H I J K L M N O P Q R S T U V W X Y Z