Song name
# A B C D E F G H I J K L M N O P Q R S T U V W X Y Z

James - Waterfall tab

E-|--------------------------------------------------------|
B-|--------------------------------------------------------|
G-|---2---2--2-2---4---4--4-4-----7---7--7-7---9-11--11-11-|
D-|-0---0--------2---2--------2/5---5-------5-(0)--0-------|
A-|--------------------------------------------------------|
E-|--------------------------------------------------------|
                                                              x2
E-|--------------------------------------------------------|
B-|--------------------------------------------------------|
G-|---2---2--2-2---4---4--4-4-----7---7--7-7---9-7---7-7---|
D-|-0---0--------2---2--------2/5---5-------5-(0)--0-------|
A-|--------------------------------------------------------|
E-|--------------------------------------------------------|
Tap to rate this tab
# A B C D E F G H I J K L M N O P Q R S T U V W X Y Z