Song name
# A B C D E F G H I J K L M N O P Q R S T U V W X Y Z

James - Control tab

-------------------------------------------------------------------------------
			     Control - James
-------------------------------------------------------------------------------
Tabbed by:James
Email:wuggle15@hotmail.com

Tuning:1E 2B 3G 4D 5A 6E
were all the fives are just put two fingers over all the strings on the fifth fret

CHORUS X1
e|----------------------------------5555-----5555-----5555-----5555---------|
B|----------------------------------5555-----5555-----5555-----5555---------|
G|----------------------------------5555-----5555-----5555-----5555---------|
D|----------------------------------5555-----5555-----5555-----5555---------|
A|5555-99--5555-99--5555-99--5555---5555-99--5555-99--5555-99--5555-99------|
E|3333-77--3333-77--3333-77--3333---5555-77--5555-77--5555-77--5555-77------|

VERSE X8
e|--------------------------------------------------------------------------|
B|--------------------------------------------------------------------------|
G|-7-9-8b-------------------------------------------------------------------|
D|--------------------------------------------------------------------------|
A|--------------------------------------------------------------------------|
E|--------------------------------------------------------------------------|

PRE CHORUS X4
e|--------------5555--------------------------------------------------------|
B|--------------5555--------------------------------------------------------|
G|--------------5555--------------------------------------------------------|
D|--------------5555--------------------------------------------------------|
A|--5555--9999--5555--------------------------------------------------------|
E|--3333--7777--5555--------------------------------------------------------|

CHORUS X2

VERSE X8
e|---------------------------------------------------------------------------|
B|--3-5-4b-------------------------------------------------------------------|
G|---------------------------------------------------------------------------|
D|---------------------------------------------------------------------------|
A|---------------------------------------------------------------------------|
E|---------------------------------------------------------------------------|

PRE CHORUS X4

CHORUS X2

SOLO
e|--------------------------------------------------------------------------|
B|--------------------------------------------------------------------------|
G|----12-10-------10-12-----99\5-55-----------------------------------------|
D|--10-----12---12-----10----------55-7-9-----------------------------------|
A|--------------------------------------------------------------------------|
E|--------------------------------------------------------------------------|


e|--------------------------------------------------------------------------|
B|--------------------------------------------------------------------------|
G|----------10h11h12--------10h11h12-12-11-10--------12-11-10---------------|
D|--10h11h12--------10h11h12-----------------12-11-10--------12-11-10-------|
A|--------------------------------------------------------------------------|
E|--------------------------------------------------------------------------|

e|---------------------------------------------------------------------------|
B|----------10h11h12--------10h11h12-99\77\55/7/99999999999999---------------|
G|--10h11h12--------10h11h12---------99\77\55/7/99999999999999---------------|
D|---------------------------------------------------------------------------|
A|---------------------------------------------------------------------------|
E|---------------------------------------------------------------------------|

CHORUS X4

OUTRO
e|-----------------5--------------------------------------------------------|
B|-----------------5--------------------------------------------------------|
G|-----------------5--------------------------------------------------------|
D|-----------------5--------------------------------------------------------|
A|-999999999999--5-5--------------------------------------------------------|
E|-777777777777--3-5--------------------------------------------------------|


| \  slide down
| /  slide up
| b  bend
| h  hammer on
===============================================================================
Tap to rate this tab
 
# A B C D E F G H I J K L M N O P Q R S T U V W X Y Z