Guitaretab - guitar tabs
Song name
# A B C D E F G H I J K L M N O P Q R S T U V W X Y Z

James - Your Tears I Shear tab

-------------------------------------------------------------------------------
			Your Tears I Shear - James
-------------------------------------------------------------------------------
Tabbed by:wuggle15 (aka James Barton)
Email:wuggle15@hotmail.com

Tuning: (E6 A5 D4 G3 B2 e1)
[ Tab from: http://www.guitaretab.com/j/james/180150.html ]
Intro/chorus
e|-x--x-x-x-x--x--x-x-x-x--x--x-x-x-x--x--x-x-x-x---------------------------|
B|-x--x-x-x-x--x--x-x-x-x--x--x-x-x-x--x--x-x-x-x---------------------------|
G|-x--x-x-x-x--x--x-x-x-x--x--x-x-x-x--x--x-x-x-x---------------------------|
D|-3--3-3-3-3--5--5-5-5-5--9--9-9-9-9--7--7-7-7-7---------------------------|
A|-3--3-3-3-3--5--5-5-5-5--9--9-9-9-9--7--7-7-7-7---------------------------|
E|-1--1-1-1-1--3--3-3-3-3--7--7-7-7-7--5--5-5-5-5---------------------------|

Verse x8
e|--------------------------------------------------------------------------|
B|--------------------------------------------------------------------------|
G|--------------------------------------------------------------------------|
D|----x-------x-------x-------x---------------------------------------------|
A|-3--x-x--5--x-x--7--x-x--9--x-x-------------------------------------------|
E|-3--x-x--5--x-x--7--x-x--9--x-x-------------------------------------------|


Intro x4
Chorus x8
Verse x8
Chorus x8
Verse x4
Chorus x8

| x  Mute with left hand
=======================================================================
Related for Your Tears I Shear tab
×
Your Tears I Shear