Song name
# A B C D E F G H I J K L M N O P Q R S T U V W X Y Z

James - Look Ay Ay Ay tab

Help us improve GuitareTab! Take a short survey!
-------------------------------------------------------------------------------
			     Look (AY AY AY) - Orange Box
-------------------------------------------------------------------------------
Tabbed by:wuggle15 (aka James Barton)
Email:wuggle15@hotmail.com

Tuning:Standard

Intro X5
e|--------------------------------------------------------------------------|
B|--------------------------------------------------------------------------|
G|--------------------------------------------------------------------------|
D|--------------------------------------------------------------------------|
A|-2-2-x-2--4-4-x-4---------------------------------------------------------|
E|-2-2-x-2--4-4-x-4---------------------------------------------------------|

Pre Verse
e|--------------------------------------------------------------------------|
B|--------------------------------------------------------------------------|
G|--------------------------------------------------------------------------|
D|--------------------------------------------------------------------------|
A|-2-2-x-2--3-3-x-3---------------------------------------------------------|
E|-2-2-x-2--3-3-x-3---------------------------------------------------------|

Verse X8
e|--------------------------------------------------------------------------|
B|--------------------------------------------------------------------------|
G|--------------------------------------------------------------------------|
D|--------------------------------------------------------------------------|
A|-4-4-4-4-5-5-5-5-3-3-3-3--------------------------------------------------|
E|-2-2-2-2-3-3-3-3-1-1-1-1--------------------------------------------------|

Pre Chorus
e|--------------------------------------------------------------------------|
B|--------------------------------------------------------------------------|
G|--------------------------------------------------------------------------|
D|--------------------------------------------------------------------------|
A|-2-2-x-2--5-5-x-5--2-2-x-2--3-3-x-3-x-3-----------------------------------|
E|-2-2-x-2--5-5-x-5--2-2-x-2--3-3-x-3-x-3-----------------------------------|

Chorus
e|--------------------------------------------------------------------------|
B|--------------------------------------------------------------------------|
G|--------------------------------------------------------------------------|
D|-5-5-5-5-7-7-7-7-7-5-5-5-5-5-3-3-3-3-3------------------------------------|
A|-5-5-5-5-7-7-7-7-7-5-5-5-5-5-3-3-3-3-3------------------------------------|
E|-3-3-3-3-5-5-5-5-5-3-3-3-3-3-1-1-1-1-1------------------------------------|

X4
e|--------------------------------------------------------------------------|
B|--------------------------------------------------------------------------|
G|--------------------------------------------------------------------------|
D|-5-5-5-5-5-7-7-7-7-7-5-5-5-5-5-3-3-3-3-3----------------------------------|
A|-5-5-5-5-5-7-7-7-7-7-5-5-5-5-5-3-3-3-3-3----------------------------------|
E|-3-3-3-3-3-5-5-5-5-5-3-3-3-3-3-1-1-1-1-1----------------------------------|

Pre Verse
e|--------------------------------------------------------------------------|
B|--------------------------------------------------------------------------|
G|--------------------------------------------------------------------------|
D|--------------------------------------------------------------------------|
A|-2-2-x-2--3-3-x-3---------------------------------------------------------|
E|-2-2-x-2--3-3-x-3---------------------------------------------------------|

Verse X8
e|--------------------------------------------------------------------------|
B|--------------------------------------------------------------------------|
G|--------------------------------------------------------------------------|
D|--------------------------------------------------------------------------|
A|-4-4-4-4-5-5-5-5-3-3-3-3--------------------------------------------------|
E|-2-2-2-2-3-3-3-3-1-1-1-1--------------------------------------------------|

Pre Chorus
e|--------------------------------------------------------------------------|
B|--------------------------------------------------------------------------|
G|--------------------------------------------------------------------------|
D|--------------------------------------------------------------------------|
A|-2-2-x-2--5-5-x-5--2-2-x-2--3-3-x-3-x-3-----------------------------------|
E|-2-2-x-2--5-5-x-5--2-2-x-2--3-3-x-3-x-3-----------------------------------|

Chorus
e|--------------------------------------------------------------------------|
B|--------------------------------------------------------------------------|
G|--------------------------------------------------------------------------|
D|-5-5-5-5-7-7-7-7-7-5-5-5-5-5-3-3-3-3-3------------------------------------|
A|-5-5-5-5-7-7-7-7-7-5-5-5-5-5-3-3-3-3-3------------------------------------|
E|-3-3-3-3-5-5-5-5-5-3-3-3-3-3-1-1-1-1-1------------------------------------|

X4
e|--------------------------------------------------------------------------|
B|--------------------------------------------------------------------------|
G|--------------------------------------------------------------------------|
D|-5-5-5-5-5-7-7-7-7-7-5-5-5-5-5-3-3-3-3-3----------------------------------|
A|-5-5-5-5-5-7-7-7-7-7-5-5-5-5-5-3-3-3-3-3----------------------------------|
E|-3-3-3-3-3-5-5-5-5-5-3-3-3-3-3-1-1-1-1-1----------------------------------|

solo
e|--------------------------------------------------------------------------|
B|--------------------------------------------------------------------------|
G|--------------------------------------9-7---7-9---------------------------|
D|-9-7-5-7b-5-7b-7/9-7-9-10-9-7/5h7-5-7-----9-----7h9/5-77-99-55------------|
A|--------------------------------------------------------------------------|
E|--------------------------------------------------------------------------|

e|--------------------------------------------------------------------------|
B|--------------------------------------------------------------------------|
G|--------------------------------------------------------------------------|
D|-9-7-5-7b-5-7b-7/9-7-9-10-9-7/5h7-5-77-99-55-7-5--------------------------|
A|--------------------------------------------------------------------------|
E|--------------------------------------------------------------------------|

Pre Chorus
e|--------------------------------------------------------------------------|
B|--------------------------------------------------------------------------|
G|--------------------------------------------------------------------------|
D|--------------------------------------------------------------------------|
A|-2-2-x-2--5-5-x-5--2-2-x-2--3-3-x-3-x-3-----------------------------------|
E|-2-2-x-2--5-5-x-5--2-2-x-2--3-3-x-3-x-3-----------------------------------|

Chorus
e|--------------------------------------------------------------------------|
B|--------------------------------------------------------------------------|
G|--------------------------------------------------------------------------|
D|-5-5-5-5-7-7-7-7-7-5-5-5-5-5-3-3-3-3-3------------------------------------|
A|-5-5-5-5-7-7-7-7-7-5-5-5-5-5-3-3-3-3-3------------------------------------|
E|-3-3-3-3-5-5-5-5-5-3-3-3-3-3-1-1-1-1-1------------------------------------|

Outro

X2
e|--------------------------------------------------------------------------|
B|--------------------------------------------------------------------------|
G|--------------------------------------------------------------------------|
D|--------------------------------------------------------------------------|
A|-3-3-3-3-3-3-4b--5-5-5-5-5-5-5-5-6b---------------------------------------|
E|-1-1-1-1-1-1-2b--3-3-3-3-3-3-3-3-4b---------------------------------------|


e|--------------------------------------------------------------------------|
B|--------------------------------------------------------------------------|
G|--------------------------------------------------------------------------|
D|-5-5-5-5-7-7-7-7-7-5-5-5-5-5-3-3-3-3-3------------------------------------|
A|-5-5-5-5-7-7-7-7-7-5-5-5-5-5-3-3-3-3-3------------------------------------|
E|-3-3-3-3-5-5-5-5-5-3-3-3-3-3-1-1-1-1-1------------------------------------|

X2
e|--------------------------------------------------------------------------|
B|--------------------------------------------------------------------------|
G|--------------------------------------------------------------------------|
D|-5-5-5-5-5-7-7-7-7-7-5-5-5-5-5-3-3-3-3-3----------------------------------|
A|-5-5-5-5-5-7-7-7-7-7-5-5-5-5-5-3-3-3-3-3----------------------------------|
E|-3-3-3-3-3-5-5-5-5-5-3-3-3-3-3-1-1-1-1-1----------------------------------|


| /  slide up
| \  slide down
| h  hammer-on
| p  pull-off
| ~  vibrato
| +  harmonic
| x  Mute note
===============================================================================
Related for Look Ay Ay Ay tab