Song name
# A B C D E F G H I J K L M N O P Q R S T U V W X Y Z

James - Sit Down tab

Sit Down - James
Gold Mother (1991 Re-Release) (1989 original release)
michael.beaumont@live.com



Intro

E|----------------------------------|
A|-----12-12---/12\10---------------|
D|-----13-13---/13\11-9----11-4-----|
G|--------------------9----9--4-----|
B|----------------------------------|
E|-0-0------------------------------|


E|----------------------------------------------------------------------------|
A|----------------------------------------------------------------------------|
D|-4/9--12-13---12-12-12-12-10--12-12-12-12-10--12-12-12-12-10--12-12-10-10---|
G|-4/9--13-13---13-13-13-13-11--13-13-13-13-11--13-13-13-13-11--13-13-11-11-9-|
B|--------------------------------------------------------------------------9-|
E|----------------------------------------------------------------------------|


E
I'll sing myself to sleep

   A               B
A song from the darkest hour

E
Secrets I can't keep

   A           B
Inside of the day

E
Swing from high to deep

   A          B
Extremes of sweet and sour

E
Hope that God exists

   A       B
I hope I pray



E
Drawn by the undertow

     A               B
My life is out of control

E                                   A
I believe this wave will bear my weight

            B
So let it flow



E
Oh sit down

A                B
Sit down next to me

E
Sit down, down, down, down, down

A        B
In sympathy



E|-------------------------------------------------------------|
A|-12-12-12-12-10------------------9-10-12-12-12-12-12-10-9----|
D|-13-13-13-13-11--9-11-13-11-9----9-9--9--9--9--9--9--9--9-11-|
G|-----------------9-9--9--9--9-----------------------------9--|
B|-------------------------------------------------------------|
E|-------------------------------------------------------------|


E|-------------------------------------12-12-12--12-12-12--9--9--9---------17-16-|
A|-9-10-12--9-10-12--9-10-12--9-10-12--12-12-12--12-12-12--12-12-12--17-17-17-17-|
D|-9-9--9---9-9--9---9-9--9---9-9--9---9--9--9---9--9--9---9--9--9---16-16-16-16-|
G|-------------------------------------------------------------------------------|
B|-------------------------------------------------------------------------------|
E|-------------------------------------------------------------------------------|


E
Now I'm relieved to hear

              A           B
That you've been to some far out places

E
It's hard to carry on

           A         B
When you feel all alone

E
Now I've swung back down again

       A                  B
It's worse than it was before

      E
If I hadn't seen such riches
 
         A                B
I could live with being poor

E
Oh sit down

      A          B
Sit down next to me

E
Sit down, down, down, down, down

A       B
In sympathy



(No guitar at this part)
Those who feel the breath of sadness


Sit down next to me


Those who find they're touched by madness


Sit down next to me


Those who find themselves ridiculous


Sit down next to me


In love, in fear, in hate, in tears



E     A  B
Down

E     A  B
Down



E
Oh sit down

     A           B
Sit down next to me

E
Sit down, down, down, down, down

A      B
In sympathy




E
Oh sit down

     A           B
Sit down next to me

E
Sit down, down, down, down, down

A      B
In sympathy



E
Down 
Tap to rate this tab
# A B C D E F G H I J K L M N O P Q R S T U V W X Y Z