Song name
# A B C D E F G H I J K L M N O P Q R S T U V W X Y Z

James - Out To Get You tab

James
Out To Get You
Laid

Verse 1
E---------------------------------|
B---------------------------------|
G---------------------------------|
D---------------------------------|
A---7--7-7--7---7---7--7-7------3-|
C-0---0---0---0---5---5---5-7-5---|

Chorus 1
E---------------------------------|
B---------------------------------|
G---------------------------------|
D---------------------------------|
A---3--3-3--3---3---3--3-3--3---3-|
E-0---0---0---0---5---5---5---7---|

Verse 2
E---------------------------------|
B---------------------------------|
G---------------------------------|
D---------------------------------|
A---7--7-7--7---7---5--5-5--5---5-|
C-0---0---0---0---5---5---5---5---|

Chorus

Verse 3
E---------------------------------|
B---------------------------------|
G---------------------------------|
D---------------------------------|
A---3--3-3--3---3---7--7-7------3-|
E-0---0---0---0---5---5---5-7-5---|
1x

E---------------------------------|
B---------------------------------|
G---------------------------------|
D---------------------------------|
A---7--7-7--7---7---7--7-7------3-|
C-0---0---0---0---5---5---5-7-5---|

Chorus

Outro
E---------------------------------|
B---------------------------------|
D---------------------------------|
A---3---3---3---3---5---5---5---5-|
E-0---0---0---0---5---5---5---5---|

Questions?
Email at cory.roesch@yahoo.com
Tap to rate this tab
# A B C D E F G H I J K L M N O P Q R S T U V W X Y Z