Song name
# A B C D E F G H I J K L M N O P Q R S T U V W X Y Z

James - Bheegi Bheegi Si tab

Since I have never found a single website with the Bheegi Bheegi Si by the bangladeshi 
JAMES tabs, I thought of

typing it myself.
But, the only problem is that this is the first time I'm typing somy, so you may find it 
little clumsy but hey,
its better than nothing...

Well, here it goes

|------------------------------------------------------------|
|\12-b-(13)-13---------rb(12)-p10----------------------------|
|------------------------------------------------------------|
|------------------------------------------------------------|
|------------------------------------------------------------|
|------------------------------------------------------------|


|------------------------------------------------------------|
|12-b-(15)-rb-12-8-b-(10)-rb-8-b(10)-rb-(8)------------------|
|------------------------------------------------------------|
|------------------------------------------------------------|
|------------------------------------------------------------|
|------------------------------------------------------------|


|------------------------------------------------------------|
|8-12--12-b-(15)-rb-(12)-10--8-7-----------------------------|
|------------------------------------------------------------|
|------------------------------------------------------------|
|------------------------------------------------------------|
|------------------------------------------------------------|


|12--14-15--17--14--12-10------------------------------------|
|------------------------------------------------------------|
|------------------------------------------------------------|
|------------------------------------------------------------|
|------------------------------------------------------------|
|------------------------------------------------------------|

|14-15-17--19-b-(20)-rb-(19)--17--15--14--10-----------------|
|------------------------------------------------------------|
|------------------------------------------------------------|
|------------------------------------------------------------|
|------------------------------------------------------------|
|------------------------------------------------------------|

|------------------------------------------------------------|
|-8-7-5-7-5-3-5-3-1-3-1-0-1-0---0----------------------------|
|-----------------------------2---2-0------------------------|
|------------------------------------------------------------|
|------------------------------------------------------------|
|------------------------------------------------------------|

Deeptarko Chowdhury.

Any Questions, please mali me at:
coolprithu_1991@yahoo.com


Thankyou.
Tap to rate this tab
# A B C D E F G H I J K L M N O P Q R S T U V W X Y Z