Song name
# A B C D E F G H I J K L M N O P Q R S T U V W X Y Z

Jamestown Story - Sunset tab

-------------------------------------------------------------------------------
			     Sunset  Jamestown Story
-------------------------------------------------------------------------------
Tabbed by: Miles
Email:

Tuning: Standard

What are the chords?

e|---------------------------------------------------------------------------|
B|---------------------------------------------------------------------------|
G|----/5--3--0--3--7--5--3-----/5--3--0--3--7--5--7----8--7--5--5--7---------|
D|--------------------------------------------------------------------8--5---|
A|---------------------------------------------------------------------------|
E|---------------------------------------------------------------------------|

e|---------------------------------------------------------------------------|
B|--------------------8--6---------------------------------------------------|
G|-----------------5---------------------------------------------------------|
D|--------5--7--8------------------------------------------------------------|
A|---8-----------------------------------------------------------------------|
E|---------------------------------------------------------------------------|

e|---------------------------------------------------------------------------|
B|---------------------------------------------------------------------------|
G|----/5--3--0--3--7--5--3-----/5--3--0--3--7--5--7---8--7--5--7--3--3--2----|
D|---------------------------------------------------------------------------|
A|---------------------------------------------------------------------------|
E|---------------------------------------------------------------------------|


| /  slide up
| \  slide down
| h  hammer-on
| p  pull-off
| ~  vibrato
| +  harmonic
| x  Mute note
===============================================================================

Tap to rate this tab
# A B C D E F G H I J K L M N O P Q R S T U V W X Y Z