Song name
# A B C D E F G H I J K L M N O P Q R S T U V W X Y Z

Jamestown Story - Till The World Ends tab

capo on the 4 fret

E------------------0-----------------------------|
B------------------0-----------------------------|
G----2-2/4/2--0----0-----------------------------|
D---------------0--------------------------------|
A------------------------------------------------|
E------------------------------------------------|

E------------------0-----------------------------|
B------------------0-----------------------------|
G----2-2/4/2--0----0-----------------------------|
D------------------0-----------------------------|
A---------------2--------------------------------|
E------------------------------------------------|
Tap to rate this tab
 
# A B C D E F G H I J K L M N O P Q R S T U V W X Y Z