Song name
# A B C D E F G H I J K L M N O P Q R S T U V W X Y Z

Jamestown Story - Change tab

This is my first tab so be nice ;)

I love this song but i can't find chords anywhere. Lucky, song is easy to learn so i 
made this tabs for novice guitar players like me.

Standard tuning - capo 3


intro and verse is like this:

e|----3----3----3----3--3----------------------------------------------------|
B|----3----3----3----3--3----------------------------------------------------|
G|----0----0----0----2--0----------------------------------------------------|
D|----0----2----2-------0----------------------------------------------------|
A|----2----2----3-------0----------------------------------------------------|
E|----3-----------------2----------------------------------------------------|

and chorus:


e|----3----3----3----3----------------------------------------------------|
B|----3----3----3----3----------------------------------------------------|
G|----0----0----0----2----------------------------------------------------|
D|----2----2----0---------------------------------------------------------|
A|----2----3----2---------------------------------------------------------|
E|--------------3---------------------------------------------------------|

That's all :)) If you like chords, you can listen to couple of my own songs at 
www.bandzone.cz/brokenpromises  (I'm from Czech republic :)
Thanks and see you ;)
Tap to rate this tab
 
# A B C D E F G H I J K L M N O P Q R S T U V W X Y Z