Song name
# A B C D E F G H I J K L M N O P Q R S T U V W X Y Z

Jamestown Story - I Dont Want To Lose You tab

Song: #2 - I Don't Wanna Lose You
Band: Jamestown Story
Album: Find A Way
Tabbed By: Explosion95 aka Jeroen van Rijn
Tuning: Standard

/ = slide up
\ = slide down
h = hammer on
p = pull off

   Guitar
e|------------------|---------------|--------------|-----11---------|
b|-------9-------9--|------9------9-|------9-----9-|-8-9----9-8\\\\-|
g|-8//10---10-------|----8---8------|----8---8-----|----------------|
d|------------13----|-11-------11---|-10-------10--|----------------|
a|------------------|---------------|--------------|----------------|
e|------------------|---------------|--------------|----------------|

   Piano
e|-----------------------------------------------------------|
b|-----------------------------------------------------------|
g|-10--10--10--8--6--5--3h5p3--1--------10--10--10--8--6--5--|
d|--------------------------------3--------------------------|
a|-----------------------------------------------------------|
e|-----------------------------------------------------------|
Tap to rate this tab
 
# A B C D E F G H I J K L M N O P Q R S T U V W X Y Z