Song name
# A B C D E F G H I J K L M N O P Q R S T U V W X Y Z

Jamey Johnson - Women tab

----------------------------------------------------------------------------
			     Jamey Johnson- Women
----------------------------------------------------------------------------
Tabbed by:Bunnylove09
Email:dlangii@cscc.edu

Tuning:Standard

e|-------------------------------------------------------------------------|
B|-------------1-----1-----1-----------3------3------3------3--------------|
G|-----------0-----0-----0-------0---0------0------0------0----------------|
D|--0h2-0--------------------0h2-------------------------------------------|
A|3-------3------------3-----------------2-------------2-------------------|
E|---------------3-----------------3------------3--------------------------|

e|-------------------------------------------------------------------------|
B|----1-----1------3-----3-------1-----------------------------------------|
G|--2-----2------0-----0------0--------------------------------------------|
D|------3---------------------------0h2-0----------------------------------|
A|3------------------2-----3--------------3--------------------------------|
E|------------3------------------------------------------------------------|

Tap to rate this tab
 
# A B C D E F G H I J K L M N O P Q R S T U V W X Y Z