Song name
# A B C D E F G H I J K L M N O P Q R S T U V W X Y Z

Jamey Johnson - Back To Caroline tab

Standard tuning. Not 100% about this one.

E|---------------------------------------------------|
B|-------5/3--2/3--2---------5/3--2/3----------------|
G|-----------------------0---------------------------| (x2)
D|---------------------------------------------------|
A|---2-----------------------------------------------|
E|---------------------------------------------------|


E|-------------------------------------------------------|
B|---8-10-7----------------------------------------------|
G|----------7--------------------------------------------|
D|--------------11-9-7-9/11-----11-9-7-9--------4-2-4-2--|
A|-----------------------------------------7-7--4-2-4-2--|
E|-------------------------------------------------------|

E|--------------------------------------------------------------|
B|--12-10-8-10/12----12-10-8-10/12----12-10-8-7/8--7---------/14|
G|---------------------------------------------------9-12-7-----|
D|--------------------------------------------------------------|
A|--------------------------------------------------------------|
E|--------------------------------------------------------------|
Tap to rate this tab
 
# A B C D E F G H I J K L M N O P Q R S T U V W X Y Z