Song name
# A B C D E F G H I J K L M N O P Q R S T U V W X Y Z

Jami Smith - Only You Satisfy tab

Lick:

E |----------------------------|
B |----------------------------|
G |-7--9--11-9-----7--9--11-12-|
D |----------------------------|
A |----------------------------|
E |----------------------------|

Solo:

E |-10-10-------------10-10------------10-10----7--7--7--7--7-s-9--14-14-14-|
B |-------10-10-------------10-10------------10-----------------------------|
G |-------------7--9--------------7--7--------------------------------------|
D |-------------------------------------------------------------------------|
A |-------------------------------------------------------------------------|
E |-------------------------------------------------------------------------|


E |-14-14-14-14-17-17-17-17-17-19-22-|
B |----------------------------------|
G |----------------------------------|
D |----------------------------------|
A |----------------------------------|
E |----------------------------------|

Tab by Timothy Ricks
Tap to rate this tab
 
# A B C D E F G H I J K L M N O P Q R S T U V W X Y Z