Song name
# A B C D E F G H I J K L M N O P Q R S T U V W X Y Z

Jamie Cullum - Gran Torino tab

Gran Torino
Jamie Cullum
Album: The Pursuit


So I have tabbed out the intro and there are different renditions of the song on this
so you can choose the one that sounds the best for you. Im very certain that I have done
right. Jamie plays this on piano but it sounds very nice on guitar. If you listen to the 
it is very easy to play. Please let me know what you think!


E----------------------------------------------------------------------|
B------5----------5----------5--------6----------6--------6------------|
G5h7--------5h7---------5h7------7h9-------7h9------7h9---------------|
D----------------------------------------------------------------------|
A----------------------------------------------------------------------|
E----------------------------------------------------------------------|


E----------------------------------------------------------------------|
B---------3-------6p5p3-----------5------------------------------------|
G----4h5---------------------5h7---------------------------------------|
D----------------------------------------------------------------------|
A----------------------------------------------------------------------|
E----------------------------------------------------------------------|
Tap to rate this tab
 
# A B C D E F G H I J K L M N O P Q R S T U V W X Y Z