Song name
# A B C D E F G H I J K L M N O P Q R S T U V W X Y Z

Jamie Lenman - The Six Fingered Hand tab

-----------------------------------------------------------------------------
                             The Six Fingered Hand - Jamie Lenman
-----------------------------------------------------------------------------
Tabbed by: Ryan
E-mail: RHARTRIDGE@GOOGLEMAIL.COM

Tuning: Drop C#


"I REMEMBER WHEN I WAS A KID..."
D#|-------------------------------------------------------------------|
A#|-------------------------------------------------------------------|
F#|-------------------------------------------------------------------|
C#|-----------------------------------------57-57---------------------| X4
G#|-----------------------------------------57-57---------------------|
C#|-0h1h2-2-1-0h1h2-2-1-0h1h2-2-1-0h1h2-2-1-57-57-0h1h2-2-1-0h1h2-2-1-|


"NOW THEY'VE BEEN AND GONE..."
D#|----------------------------------------|
A#|----------------------------------------|
F#|----------------------------------------|
C#|-----------------------------33-666666--|
G#|----------22-555555----22-55------5555--|
C#|-00-33-66-----------66------------------|


"WHERE WERE ALL THE AMAZING DESIGNS..."
D#|------------------------------------------------------------------|
A#|------------------------------------------------------------------|
F#|------------------------------------------------------------------|
C#|-/7-5-3--/7-5-3--/7-5-3--555555--/7-5-3--/7-5-3--/7-5-3-----------|
G#|-/7-5-3--/7-5-3--/7-5-3--555555--/7-5-3--/7-5-3--/7-5-3-----------|
C#|-/7-5-3--/7-5-3--/7-5-3--555555--/7-5-3--/7-5-3--/7-5-3-0h1h2-2-1-|


D#|-------------------------------------------------------------------------|
A#|-------------------------------------------------------------------------|
F#|-------------------------------------------------------------------------|
C#|-/7-5-3--/7-5-3--/7-5-3--------/7-5-3--/7-5-3--/7-5-3--------------------|
G#|-/7-5-3--/7-5-3--/7-5-3--------/7-5-3--/7-5-3--/7-5-3--------------------|
C#|-/7-5-3--/7-5-3--/7-5-3-555555-/7-5-3--/7-5-3--/7-5-3-0h1h2-2-1-0h1h2-2-1|
                         pm......

"WE'RE ALL AFRAID..."
D#|------------------------------------------------|
A#|------------------------------------------------|
F#|------------------------------------------------|
C#|-------------------------------2-2-2-2-5-5-5-5--|
G#|-------------------------------2-2-2-2-5-5-5-5--|
C#|-0h1h2-2-1-0h1h2-2-1-0h1h2-2-1-2-2-2-2-5-5-5-5--|
                                pm...............

"DRIED UP AND USELESS..."
D#|------------------------------------------------------|
A#|------------------------------------------------------|
F#|------------------------------------------------------|
C#|--------------------------------5-5-5-5-5-5-5---------| REPEAT SECTION X2
G#|--------------------------------5-5-5-5-5-5-5---------|
C#|-0h1h2-2-1-0h1h2-2-1-0h1h2-2-1--5-5-5-5-5-5-5---------|
                                   pm.............


"CRUSHES OUR THROATS..."
D#|------------------------------------|
A#|-10-10-10-10---10-10-10-10-10-10-10-|
F#|-13-13-13-13---13-13-13-13-13-13-13-|
C#|-12-12-12-12---12-12-12-12-12-12-12-|
G#|-0--0--0--0----0--0--0--0--0--0--0--|
C#|-0--0--0--0----0--0--0--0--0--0--0--|


"WHAT A RIP-OFF..."
D#|-------------------------------------------------------------|
A#|-10-10-10-10--------------------------10-10-10-10------------|
F#|-13-13-13-13--------------------------13-13-13-13------------|
C#|-12-12-12-12--------------------------12-12-12-12------------|
G#|-0--0--0--0---------------------------0--0--0--0-------------|
C#|-0--0--0--0----0-0-0-0-0-0-0-0-0-0-/--0--0--0--0---0h1h2-2-1-|
                pm...................

THIS ISN'T ACCURATE, TIMING IS SO BRUTAL. LEADS INTO THE NEXT SECTION.

"DID WE..."
D#|--------------------------------------------------------|
A#|--------------------------------------------------------|
F#|--------------------------------------------------------|
C#|5-6-10--0-3-/10-/10--0-3-/10--0-3-/10-/10--0-3-6-5-/10--|
G#|5-6-10--0-3-/10-/10--0-3-/10--0-3-/10-/10--0-3-6-5-/10--|
C#|5-6-10--0-3-/10-/10--0-3-/10--0-3-/10-/10--0-3-6-5-/10--|


D#|---------------------------------------------|
A#|---------------------------------------------|
F#|---------------------------------------------|
C#|0-3-/10-/10--0-3-/10--0-3-/10-/10--0-3-------|
G#|0-3-/10-/10--0-3-/10--0-3-/10-/10--0-3-------|
C#|0-3-/10-/10--0-3-/10--0-3-/10-/10--0-3-11-33-|
                                        pm.. ..

"IF ALL THE STARS..."
D#|-------------------------|
A#|-------------------------|
F#|-------------------------|
C#|-------11--------11--33--| X2
G#|---------33--------33----|
C#|-000111----000111--------|
  pm......    ......

D#|-------------------------------------------------|
A#|-------------------------------------------------|
F#|-------------------------------------------------|
C#|-5556663355-555666556677-5556663355-555666556699-|
G#|-5556663355-555666556677-5556663355-555666556699-|
C#|-5556663355-555666556677-5556663355-555666556699-|


"WE DIDN'T EVEN TRY..."
D#|-------------------------    ----------------------------------|
A#|-------------------------    -777777777777777777777------------|
F#|-------------------------    -xxxxxxxxxxxxxxxxxxxxx------------| FADES IN.
C#|-------11--------11--33-- X2 -444444444444444444444--------\\\-|
G#|---------33--------33----    -xxxxxxxxxxxxxxxxxxxxx--------\\\-|
C#|-000111----000111--------    ------------------------------\\\-|
  pm......    ......


"BURNT OUT AND ALL FOR JACK..."
D#|-------------------------------------------------------|
A#|-------------------------------------------------------|
F#|-------------------------------------------------------|
C#|-131313131313131313-1212121212121212-77777777-88888888-|
G#|-111111111111111111-1010101010101010-55555555-66666666-|
C#|-9-9-9-9-9-9-9-9-9--8-8-8-8-8-8-8-8--33333333-44444444-|


D#|-------------------------------------------------------|
A#|-------------------------------------------------------|
F#|-------------------------------------------------------|
C#|-131313131313131313-1212121212121212-77777777----------|
G#|-111111111111111111-1010101010101010-55555555-66666666-|
C#|-9-9-9-9-9-9-9-9-9--8-8-8-8-8-8-8-8--33333333-22222222-|


D#|-------------------------------------------------------------------------|
A#|-------------------------------------------------------------------------|
F#|-------------------------------------------------------------------------|
C#|-131313131313131313-1212121212121212-161616161616161616-15151515-12121212|
G#|-111111111111111111-1010101010101010-141414141414141414-13131313-10101010|
C#|-9-9-9-9-9-9-9-9-9--8-8-8-8-8-8-8-8--121212121212121212-11111111-8-8-8-8-|


"SIX FAT FINGERS..."
D#|---------------------x-x--x-x-|
A#|---------------------x-x--x-x-|
F#|-11--1314--1617--19--x-x--x-x-|
C#|-10--1213--1516--18--x-x--x-x-|
G#|-x---x-x---x-x---x---x-x--x-x-|
C#|-9---1112--1415--17--x-x--x-x-|


OUTRO
D#|--------------------------------------------------|
A#|--------------------------------------------------|
F#|--------------------------------------------------|
C#|----------------------------------------2222-5555-|
G#|----------------------------------------2222-5555-|
C#|-0-0-1-2-1-0--0-0-1-2-1-0--0-0-1-2-1-0--2222-5555-|
                                         pm.... ....

D#|-------------------------------------------------|
A#|-------------------------------------------------|
F#|-------------------------------------------------| SLOW DOWN AND REPEAT.
C#|----------------------------------------555-777--|
G#|----------------------------------------555-777--|
C#|-0-0-1-2-1-0--0-0-1-2-1-0--0-0-1-2-1-0--555-777--|


D#|------|
A#|------|
F#|--8---|
C#|--7---| FINISH ON THIS CHORD
G#|--7---|
C#|--7---|


http://www.jamielenman.com/music/
Tap to rate this tab
# A B C D E F G H I J K L M N O P Q R S T U V W X Y Z