Song name
# A B C D E F G H I J K L M N O P Q R S T U V W X Y Z

Jamie Lenman - One Of My Eyes Is A Clock tab

-----------------------------------------------------------------------------
                  One Of My Eyes Is A Clock - Jamie Lenman
-----------------------------------------------------------------------------
Tabbed by: Ryan
E-mail: RHARTRIDGE@GOOGLEMAIL.COM

Tuning: DROP C#

"AAAAAAAAAAAAAAAAAAAAHHHHHHHHHHHHHHHHHHHHHHHHHHHHHHHHHHHHHHHHHHHHHHHHHHHHHH!"
D#|-------------------------------|
A#|-------------------------------| THIS CHORD IS SO HARD TO HEAR.
F#|-8-x-8-8-x-x-8-x-8-8-8-x-x-x-8-| RHYTHM IS SUPER DIFFICULT.
C#|-7-x-7-7-x-x-7-x-7-7-7-x-x-x-7-| LISTEN CAREFULLY FOR TIMING.
G#|-6-x-6-6-x-x-6-x-6-6-6-x-x-x-6-|
C#|-------------------------------|

MAIN RIFF
"I DON'T WANT TO LIVE MY LIFE FROM THE OUTSIDE..."
D#|--------------------------------------------------------------|
A#|--------------------------------------------------------------|
F#|--------------------------------------------------------------|
C#|--------------------------------------------------------------|
G#|--------------------------------------------------------------|
C#|-12p0-12p0-12p0-12p0-11p0-11p0-12p0-11p0-12p013p012p011p0-----|


2ND GUITAR. TREMOLO PICK CHORDS
D#|---------------------------------|
A#|---------------------------------|
F#|-101010101010101010/5555555555---|
C#|-x-x-x-x-x-x-x-x-x--xxxxxxxxxx---|
G#|-8-8-8-8-8-8-8-8-8-/3333333333---|
C#|---------------------------------|

D#|--------------------------|
A#|--------------------------|
F#|-7777777777/5555555555----|
C#|-xxxxxxxxxx-xxxxxxxxxx----|  REPEAT SECTION X2
G#|-5555555555/3333333333----|
C#|--------------------------|


"WE DON'T GO TO PARTIES ANYMORE..."
D#|----------------------------------------------------------|
A#|----------------------------------------------------------|
F#|----------------------------------------------------------|
C#|-12p0-12p0-12p0-12p0-11p0-11p0-12p0-11p0-12p013p012p011p0-|
G#|-12p0-12p0-12p0-12p0-11p0-11p0-12p0-11p0-12p013p012p011p0-|
C#|-12p0-12p0-12p0-12p0-11p0-11p0-12p0-11p0-12p013p012p011p0-|


"LIIVVVVVEEEESSSSSS..."
D#|---------------------------------------------------------------|
A#|---------------------------------------------------------------|
F#|---------------------------------------------------------------|
C#|---------------------------------------------------------------| X2
G#|---------------------------------------------------------------|
C#|-3-0-3-0-3-0-3-0-3-0-3-0-3-0-3-0-3-0-3-0-<12><12><12><12><12>--|
  pm.......................................

"MOVIE OF ME..."
D#|---------------------------------------------------------------|
A#|---------------------------------------------------------------|
F#|---------------------------------------------------------------|
C#|---------------------------------------------------------------| X2
G#|---------------------------------------------------------------|
C#|-3-0-3-0-3-0-3-0-3-0-3-0-3-0-3-0-3-0-3-0-<12><12><12><12><12>--|
DON'T PALM MUTE.

"I'M NO ONE..."
D#|--------------------------------------|
A#|--------------------------------------|
F#|---17--17--17-----------17---17--17---|
C#|-2---2---2----2-----3-2---2-2---1-----|
G#|-2---2---2----2-----1-2---2-2---1-----|
C#|-2---2---2----2-0-0---2---2-2---1-----|
                 pm...

D#|------------------------------------------|
A#|------------------------------------------|
F#|-----17--17--17---------------------------|
C#|---2---2---2---2----3---------------------|
G#|---2---2---2---2----1---------------------|
C#|-0-2---2---2---2-0-0--2-/14-2-/15-2-/12---|
 pm..               ...

MAIN RIFF AGAIN.

"GOOD GOD..."
D#|-------------------------------------------------|
A#|-------------------------------------------------|
F#|-------------------------------------------------|
C#|-12-13-12-11--12-13-12-11--12-0-12-0-12-13-12-11-|
G#|-12-13-12-11--12-13-12-11--12-0-12-0-12-13-12-11-|
C#|-12-13-12-11--12-13-12-11--12-0-12-0-12-13-12-11-|

D#|-----------------------------|
A#|-----------------------------|
F#|-----------------------------|
C#|-12-13-12-11--------------11-| REPEAT SECTION X2
G#|-12-13-12-11--------------11-|
C#|-12-13-12-11-0-0-0-0-0-0--11-|
              pm.................

"THESE THINGS..."
D#|----------------------------------------------------------------|
A#|----------------------------------------------------------------|
F#|----------------------------------------------------------------|
C#|----------------------------------------------------------------| X3
G#|-------------------------8-8-8-------11-11-11-------------------|
C#|-0-0-0-0-0-0-0-0-0-0-0-0-------9-9-9----------11-11-11-11-11-11-|
  pm..............................................................


D#|----------------------------------|
A#|----------------------------------|
F#|----------------------------------|
C#|----------------------------------|
G#|-------------------------8---11---|
C#|-0-0-0-0-0-0-0-0-0-0-0-0---9---11-|
  pm.......................

"MOOOORROOOONNNS..."
D#|---------------------------------------------|
A#|---------------------------------------------|
F#|---------------------------------------------|
C#|-17-17-17-17-17-17-17-17-17-17-17-17-17-\----|
G#|-16-16-16-16-16-16-16-16-16-16-16-16-16-\----|
C#|-0--0--0--0--0--0--0--0--0--0--0--0--0--\----|

D#|--------------------------------------------|
A#|--------------------------------------------| 
F#|--------------------------------------------| LISTEN FOR TIMING
C#|-3--0-3-0--3--0-3-0--3--0-3-0--3--0-3-0-----| X2
G#|-3--0-3-0--3--0-3-0--3--0-3-0--3--0-3-0-----|  
C#|-3--0-3-0--3--0-3-0--3--0-3-0--3--0-3-0-----|
REPEAT AGAIN AFTER NEXT SECTION BUT PALM MUTE.

"I'M FRIGHTENED..."
D#|------------------------------------------0--|
A#|------------------------------------------0--|
F#|------------------------------------------0--|
C#|---------------------------------------------| X2
G#|-0-------------------------------------------|
C#|-0-5--3-5-3--5--3-5-3--5--3-5-3--5--3-5-3----|
 pm.. 

SECOND GUITAR.
D#|--------------------------------------------|
A#|-16-16-16-16-16-16-16-16-16-16-16-16-16-16--|
F#|--------------------------------------------|
C#|--------------------------------------------|
G#|--------------------------------------------|
C#|--------------------------------------------|

"I'M SITTING DOWN..."
D#|-----------------------------------------------|
A#|-----------------------------------------------|
F#|-----------------------------------------------|
C#|-----------------------------------------------|
G#|-------------------5b-3p0----------------------|
C#|-0-0-0-0-0-0-0-0-0--------9b-0-0-0-0-0-0-0-0-0-|                                  

"I'M DROWNING MYSELF..."
D#|-------------------------------------------|
A#|-------------------------------------------|
F#|-17-17-17-17-17-17-17-17-------------------|
C#|-16-16-16-16-16-16-16-16-------------------|
G#|-15-15-15-15-15-15-15-15-5b-3p0------------|
C#|-0--0--0--0--0--0--0--0---------0-0--------|
                                 pm...
"ONE OF MY EYES IS A CLOCK..."
D#|-------------------------------------------|
A#|-------------------------------------------|
F#|-17-17-17-17-17-17-17-17-17-17-17----------|
C#|-16-16-16-16-16-16-16-16-16-16-16----------|
G#|-15-15-15-15-15-15-15-15-15-15-15----------|
C#|-0--0--0--0--0--0--0--0--0--0--0-----------|

IT'S FAIRLY ACCURATE BUT THERE WILL BE MISTAKES. AMAZING SONG.
Tap to rate this tab
# A B C D E F G H I J K L M N O P Q R S T U V W X Y Z